Foo Fighters - This Is A Call Chords & Tabs

 

This Is A Call Chords & Tabs

Foo Fighters Chords & Tabs

Version: 1 Type: Bass Tab 1 rating
1 star 2 stars 3 stars 4 stars 5 stars
comments

This Is A Call Bass Tab

Song: This is a call	
Artist: Foo Fighters
Album: Foo Fighters

Tabbed by Serena Di Iulio  ICQ: 38559568
Member of the Bass Tab Archive Tabbing Army ~
http://www.basstabarchive.com


Verse:

G||--------------------|------------------------|
D||--------------------|------------------------|
A||--------------------|-------7--7----7--7--7--|
E||------------3--3----|--0---------------------|


                                                    
------------------------|--------------------------|
------------------------|--------------------------|
-------7--7-------5--7--|--------------------------|
--0------------7--------|--3--3--3--3--3--3--3--3--|


                                                    
--------------------------|------------------------|
--------------------------|------------------------|
--------------------------|------------------------|
--3--3--3--3--3--5--5--5--|--0----0--0----0--0--0--|



------------------------|
------------------------|
------------------------|
----0--0--0----0--0--0--|



Chorus 1


G||------------------------|------------------------|
D||------------------------|------------------------|
A||------------------------|------------------------|
E||--2--2----2--2--2----2--|--5--5----5--5--5----5--|


                                                  
------------------------|------------------------|
------------------------|------------------------|
------------------------|------------------------|
--0--0----0--0--0----0--|--2--2----2--2--2----2--|


                                                    
------------------------|--------------------------|
------------------------|--------------------------|
------------------------|--------------------------|
--5--5----5--5--5----5--|--0--0--0--0--0--0--0--0--|

[ Tab from: http://www.guitartabs.cc/tabs/f/foo_fighters/this_is_a_call_btab.html ]
                                                 
------------------------|
------------------------|
------------------------|
--0--0--0--0----3--3----|




Chorus 2


G||------------------------|------------------------|
D||------------------------|------------------------|
A||------------------------|------------------------|
E||--2--2----2--2--2----2--|--5--5----5--5--5----5--|


                                                  
------------------------|------------------------|
------------------------|------------------------|
------------------------|------------------------|
--0--0----0--0--0----0--|--2--2----2--2--2----2--|


                                                  
------------------------|------------------------|
------------------------|------------------------|
------------------------|------------------------|
--5--5----5--5--5----5--|--0--0----0--0--0----0--|


                                                  
------------------------|------------------------|
------------------------|------------------------|
------------------------|------------------------|
--2--2----2--2--2----2--|--5--5----5--5--5----5--|


                                                  
------------------------|------------------------|
------------------------|------------------------|
------------------------|------------------------|
--0--0----0--0--0----0--|--2--2----2--2--2----2--|


                                                    
------------------------|
------------------------|
------------------------|
--5--5----5--5--5----5--|




Bridge


G||-----------------------|---------------------|
D||-----------------------|---------------------|
A||-------7---------------|--2------------------|
E||--0-----------3--4--5--|---------5----3------|



Outro


G||--------------------------||
D||--------------------------||
A||--------5--------5--4--5--||
E||--0--0-----0--0-----------||




Verse 
Chorus 1
Verse x2
Chorus 2
Bridge x4
Verse x2
Chorus 2
Bridge x4
Verse x1
Chorus 2
Bridge x8
Outro x4 

Comments