Foo Fighters - The One Chords & Tabs

 

The One Chords & Tabs

Foo Fighters Chords & Tabs

Version: 6 Type: Tab 0 ratings
1 star 2 stars 3 stars 4 stars 5 stars
comments

The One Tab

Artist: Foo Fighters
Song: The One
Album: Not Released Yet
Tuning: Standard
Tabber: Brian Irvine (brian_dino@hotmail.com)
E-mail me with any comments or questions or add me to ur MSN contact list.

Intro:
6|-------------------------|--------------------------|
5|-------------------------|-----------------3-----4--|
4|-------------------------|--------------5-(7)-6-(8)-|
3|-------------------------|--------------------------|
2|--6/7-7-7--7-6/7-7-7---7-|-6/7-7-7---7--------------|
1|--4/5-5-5--5-4/5-5-5---5-|-4/5-5-5---5--------------|

6|-------------------------------|
5|---------------------8------3--|
4|----------------10-(12)-5--(7)-|
3|-------------------------------|
2|-6/7-7-7-7--7------------------|
1|-4/5-5-5-5--5------------------|

Verse 1:
6|-------------------------------|---------------|
5|-------------------------------|---------------|
4|-------------------------------|---------------|
3|-------------------------------|---------------|
2|-7---7---7---7---7---7---7---7-|-5---5---5---5-|
1|-5---5---5---5---4---4---4---4-|-3---3---3---3-|
pm...............................................

6|-------------------------------------------------|
5|-------------------------------------------------|
4|-------------------------------------------------|
3|-------------------------------------------------|
2|-5---5---5---5---3---3---3---3---2---2---2---2/5-|
1|-2---2---2---2---1---1---1---1---0---0---0---0---|
pm..................................................

6-----------------------------------|------------------------|
5-----------------------------------|------------8-8-8-8-8-8-|
4-----------------------------7-----|------------8-8-8-8-8-8-|
3-7---7---7---7---7---7---7---7---7-|-7----7-----8-8-8-8-8-8-|
2-5---5---5---5---5---5---5---5---7-|-5----5-----6-6-6-6-6-6-|
1---------------------------------5-|------------------------|
pm...........................      pm........

Chorus:
6-------------------------------|-----------------------------|
5-------------------------------|-----------------------------|
4-------------------------------|--6/7--7--7----7----7-7----7-|
3-6/7--7--7----7-----7--7-----7-|--6/7--7--7----7----7-7----7-|
2-6/7--7--7----7-----7--7-----7-|--4/5--5--5----5----5-5----5-|
1-4/5--5--5----5-----5--5-----5-|-----------------------------|

6----------------------------------------------------------------|
5----------------------------------------------------------------|
4-4/5--5--5---5---------5--5-------------------------------------|
3-4/5--5--5---3---------5--3---------3----3--3----5--5----5----5-|
2-2/3--3--3---3---------3--3-----3---3----3--3----5--5----5----5-|
1--------------------------------1---1----1--1----3--3----3----3-|

Verse 2:
6---------------------------------------------------|
5---------------------------------------------------|
4---------------------------------------------------|
3---------------------------------------------------|
2-7---7---7---7---7---7---7---7---5---5---5---5---5-|
1-5---5---5---5---4---4---4---4---3---3---3---3---3-|
pm..........................        pm...............

6------------------------------------------------------|
5------------------------------------------------------|
4------------------------------------------------------|
3------------------------------------------------------|
2-5---5---5---5---3---3---3---3---3----2---2---2---2/5-|
1-2---2---2---2---1---1---1---1---1----0---0---0---0---|
pm..........        pm.................................
[ Tab from: http://www.guitartabs.cc/tabs/f/foo_fighters/the_one_tab_ver_6.html ]
6------------------------------------|--------------------------|
5------------------------------------|--------------------------|
4---------------------------------8--|-7-7-7-7-7-7--8-8-8-8-8-8-|
3--7---7---7---7-------7---7--7---8--|-7-7-7-7-7-7--8-8-8-8-8-8-|
2--5---5---5---5-------5---5--5---6--|-5-5-5-5-5-5--6-6-6-6-6-6-|
1---------------------------------6--|-5-5-5-5-5-5--6-6-6-6-6-6-|
pm...............

Middle section:
6----------------------------------|------------|---------------|
5----------------------------------|------------|---------------|
4----------------------------------|------------|---------------|
3-0--0--0--0--0--0--0--0--0--1---x-|-3--3--3--3-|-3--3--3--3--x-|
2-0--0--0--0--0--0--0--0--0--1---x-|-3--3--3--3-|-3--3--3--3--x-|
1--------------------------------x-|-1--1--1--1-|-1--1--1--1--x-|

6------------------|-------------------|---------------------------|
5------------------|-------------------|---------------------------|
4------------------|-------------------|---------------------------|
3-5---5---5---5--5-|-5---5--5-5---5--0-|-0--0--0--0--0--0--0--0--3-|
2-5---5---5---5--5-|-5---5--5-5---5--0-|-0--0--0--0--0--0--0--0--3-|
1-3---3---3---3--3-|-3---3--3-3---3----|-------------------------1-|

6---------------------------|-----------------|---------------|
5---------------------------|-----------------|---------------|
4---------------------------|-----------------|---------------|
3-3--3--3--3--3--3--3--3--4-|-5--5--5-5--5--5-|-5---5---5---5-|
2-3--3--3--3--3--3--3--1--4-|-5--5--5-5--5--5-|-5---5---5---5-|
1-1--1--1--1--1--1--1--1--2-|-3--3--3-3--3--3-|-3---3---3---3-|

6----------------------|-----------------|------------------------|---------------------|
5----------------------|-----------------|------------------------|---------------------|
4----------------------|-----------------|-------------5----------|---------------------|
3----------------------|-9-9-8--8-7--7-5-|-5h7-7-7--7--5h7-7-7--7-|-5h7-7-5h7-7-7p5---5-|
2-5h7-7-7-7-5h7-7-7--7-|-7-7-6--6-5--5-3-|-0---0-0--0--0---0-0--0-|-0---0-0---0-0---7-5-|
1----------------------|-----------------|------------------------|---------------------|

Outro chorus solo:

6------------------------------------------|---------------------------------------|
5----10------10-------10-----10---10----10-|----10----10-----10------10---10----10-|
4-12(14)-----------12(14)------12(14)------|-12(14)-------12(14)-------12(14)------|
3------------------------------------------|---------------------------------------|
2------------------------------------------|---------------------------------------|
1------------------------------------------|---------------------------------------|

6---------------------------------------|-----------------------------------------|
5----10----10------10----10-----10---10-|-----10------10-----13(15)--10h13p10-----|
4-12(14)--------12(14)-------12(14)-----|--12(14)------------------------------12-|
3---------------------------------------|-----------------------------------------|
2---------------------------------------|-----------------------------------------|
1---------------------------------------|-----------------------------------------|

6------------------------------|--17-15--15---------------------------|
5----10---10------13--------8--|-------17--17-16-17-16-15-13-15-13----|
4-12(14)-------15(17)---10(12)-|-----------------------------------14-|
3------------------------------|--------------------------------------|
2------------------------------|--------------------------------------|
1------------------------------|--------------------------------------|

Thats It!!
Enjoy!
Comments