Foo Fighters - The One Chords & Tabs

 

The One Chords & Tabs

Foo Fighters Chords & Tabs

Version: 5 Type: Tab 0 ratings
1 star 2 stars 3 stars 4 stars 5 stars
comments

The One Tab

   
!!! Britain !!!Foo Fighters
The One (standard tuning)
Tabbed by Jon Ackland
JonAck14@aol.com

Riff 1
E|-----------------------------------------------------
B|-----------------------------------------------------
G|----------------------7-8------------------------7-8-
D|-6/7777-6/7777-6/7777-7-8---6/7777-6/7777-6/7777-7-8-
A|-6/7777-6/7777-6/7777-5-6---6/7777-6/7777-6/7777-5-6-
E|-4/5555-4/5555-4/5555-------4/5555-4/5555-4/5555-----

  ------------------------------------------------------|
  ------------------------------------------------------|
  ----------------------7-8------------------------12---|
  -6/7777-6/7777-6/7777-7-8---6/7777-6/7777-6/7777-12-12|
  -6/7777-6/7777-6/7777-5-6---6/7777-6/7777-6/7777-10-12|
  -4/5555-4/5555-4/5555-------4/5555-4/5555-4/5555----10|

Verse
E|-------------------------------------------------------
B|-------------------------------------------------------
G|-------------------------------------------------------
D|-10-10-10-10-9-9-9-9-7-7-7-7-5-5-5-5-4-4-4-4-3-3-3-3-11
A|-10-10-10-10-9-9-9-9-7-7-7-7-5-5-5-5-4-4-4-4-3-3-3-3-11
E|-8--8--8--8--7-7-7-7-5-5-5-5-3-3-3-3-2-2-2-2-1-1-1-1-9-

  ---------------------|
  ---------------------|  
  ---------------------|    X 2
  -11-11-11-11-11-11-11|
  -11-11-11-11-11-11-11|
  -9--9--9--9--9--9--9-|

Chorus
E|-------------------------------|
B|-------------------------------|
G|----------6/777777-------------|  X 2
D|-6/777777-6/777777-4/555555-3-5|
A|-6/777777-4/555555-4/555555-3-5|
E|-4/555555----------2/333333-1-3|

Riff 2
E|------------------------------------------------------|
B|------------------------------------------------------|
G|----------------------7-8------------------------12---|
D|-6/7777-6/7777-6/7777-7-8---6/7777-6/7777-6/7777-12-12|
A|-6/7777-6/7777-6/7777-5-6---6/7777-6/7777-6/7777-10-12|
E|-4/5555-4/5555-4/5555-------4/5555-4/5555-4/5555----10|

Verse
E|-------------------------------------------------------
B|-------------------------------------------------------
G|-------------------------------------------------------
D|-10-10-10-10-9-9-9-9-7-7-7-7-5-5-5-5-4-4-4-4-3-3-3-3-11
A|-10-10-10-10-9-9-9-9-7-7-7-7-5-5-5-5-4-4-4-4-3-3-3-3-11
E|-8--8--8--8--7-7-7-7-5-5-5-5-3-3-3-3-2-2-2-2-1-1-1-1-9-

  ---------------------|
  ---------------------|  
  ---------------------|    X 2
  -11-11-11-11-11-11-11|
  -11-11-11-11-11-11-11|
  -9--9--9--9--9--9--9-|
[ Tab from: http://www.guitartabs.cc/tabs/f/foo_fighters/the_one_tab_ver_5.html ]
Chorus
E|-------------------------------|
B|-------------------------------|
G|----------6/777777-------------|
D|-6/777777-6/777777-4/555555-3-5|  X 4
A|-6/777777-4/555555-4/555555-3-5|
E|-4/555555----------2/333333-1-3|

Riff 3 "Until the end of time....."
E|--------------------------------------------------------
B|--------------------------------------------------------
G|-7-7-7-7-7-7-7-7----------------------------------------
D|-7-7-7-7-7-7-7-7-7-7-7-7-7-7-7-7-5-5-5-5-5-5-5-5-3-3-3-3
A|-5-5-5-5-5-5-5-5-7-7-7-7-7-7-7-7-5-5-5-5-5-5-5-5-3-3-3-3
E|-----------------5-5-5-5-5-5-5-5-3-3-3-3-3-3-3-3-1-1-1-1

  ----------------------------------------|
  ----------------------------------------|
  ---------7-7-7-7-7-7-7-7----------------|
  -3-3-3-3-7-7-7-7-7-7-7-7-7-7-7-7-7-7-7-7|
  -3-3-3-3-5-5-5-5-5-5-5-5-7-7-7-7-7-7-7-7|
  -1-1-1-1-----------------5-5-5-5-5-5-5-5|


Riff 4 "We go on again off....."
E|-----------------------------------------------|
B|-----------------------------------------------|
G|---------------------8/9999-8/9999-8/9-8/9-8/99|
D|-6/77-6/77-6/77-6-5----------------------------|
A|-6/77-6/77-6/77-6-5----------------------------|
E|-4/55-4/55-4/55-4-3----------------------------|

Chorus
E|-------------------------------|
B|-------------------------------|
G|----------6/777777-------------|
D|-6/777777-6/777777-4/555555-3-5|  X 4
A|-6/777777-4/555555-4/555555-3-5|
E|-4/555555----------2/333333-1-3|

Solo (Chorus is played twice behind this)
E|----------------------------------------------------------
B|-9/10-10-10-10-10-10-9/10-10-10-10-10-10-9/10-10-10-10-10-
G|----------------------------------------------------------
D|----------------------------------------------------------
A|----------------------------------------------------------
E|----------------------------------------------------------

  ----------------------------------------------------------
  -10-10-14b-13-12-11-10-9-9/10-10-10-10-10-10-9/10-10-10-10
  ----------------------------------------------------------
  ----------------------------------------------------------
  ----------------------------------------------------------
  ----------------------------------------------------------

  ----------------------------------------------------------
  -10-10-9/10-10-10-10-10-10-10-13-12-9-21-20-19-18-17-16-15
  ----------------------------------------------------------
  ----------------------------------------------------------
  ----------------------------------------------------------
  ----------------------------------------------------------

  -----------------|
  -14-13-12-11-10-9|
  -----------------|
  -----------------|
  -----------------|
  -----------------|
Comments