Foo Fighters - The One Chords & Tabs

 

The One Chords & Tabs

Foo Fighters Chords & Tabs

Version: 4 Type: Tab 0 ratings
1 star 2 stars 3 stars 4 stars 5 stars
comments

The One Tab

SONG: The One
ARTIST: Foo Fighters
TAB: Mikey
E-MAIL: mikey@mikeybaby.cjb.net

TUNING: Drop-D (DADGBE)


I sat here in the early hours of Sunday morning working this one out, on my trusty
acoustic & with headphones on, so this isn't a bad effort under those circumstances.
I'm about 99.9% sure it's all correct, except for the outro (I haven't tabbed out
the last little lead riff right at the end, but it's played right up the neck of the
guitar) and the end of the bridge (the little hammer-on riff, and the bit right before
the chorus is repeated ... it's played with some kind of effect which I don't know).



INTRO
(guitar 1, distortion)
E |--------------------------------------------|--------------------------------------------|
B |--------------------------------------------|--------------------------------------------|
G |o------------------------------------------o|--------------------------------------------|
D |o----------------------------------7--8----o|-----------------------------------7--------|
A |-----6h7--7-7--6h7--7-7--6h7--7-7--5--6-----|-----6h7--7-7--6h7--7-7--6h7--7-7--5--5-----|
D |-----6h7--7-7--6h7--7-7--6h7--7-7-----------|-----6h7--7-7--6h7--7-7--6h7--7-7-----5-----|
    (play x 3)

(guitar 2, distortion)
E |--------------------------------------------|--------------------------------------------|
B |--------------------------------------------|--------------------------------------------|
G |o----------------------------------7^-8^---o|-----------------------------------12^------|
D |o------------------------------------------o|---------------------------------------12^--|
A |-----6h7--7-7--6h7--7-7--6h7--7-7-----------|-----6h7--7-7--6h7--7-7--6h7--7-7-----------|
D |-----6h7--7-7--6h7--7-7--6h7--7-7-----------|-----6h7--7-7--6h7--7-7--6h7--7-7-----------|
    (play x 3)



VERSE 1
(both guitars, distortion)
E |--------------------------------------------------------|
B |--------------------------------------------------------|
G |--------------------------------------------------------|
D |--------------------------------------------------------|
A |-----7--7--7--7--6--6--6--6--5--5--5--5--4--4--4--4-----|
D |-----7--7--7--7--6--6--6--6--5--5--5--5--4--4--4--4-----|
     PM *  *  *  *  *  *  *  *  *  *  *  *  *  *  *  *

E |--------------------------------------------------------|
B |--------------------------------------------------------|
G |--------------------------------------------------7-----|
D |-----------------------------7--7--7--7--7--7--7--7-----|
A |-----3--3--3--3--2--2--2--2/-5--5--5--5--5--5--5--5-----|
D |-----3--3--3--3--2--2--2--2-----------------------------|
     PM *  *  *  *  *  *  *  *  *  *  *  *  *  *  *

E |--------------------------------------------------------|
B |--------------------------------------------------------|
G |--------------------------------------------------------|
D |--------------------------------------------------------|
A |-----7--7--7--7--6--6--6--6--5--5--5--5--4--4--4--4-----|
D |-----7--7--7--7--6--6--6--6--5--5--5--5--4--4--4--4-----|
     PM *  *  *  *  *  *  *  *  *  *  *  *  *  *  *  *

E |--------------------------------------------------------|
B |--------------------------------------------------------|
G |-----------------------------------------------7-7-7-7--|
D |-----------------------------7--7--7--7--7--7--7-7-7-7--|
A |-----3--3--3--3--2--2--2--2/-5--5--5--5--5--5--5-5-5-5--|
D |-----3--3--3--3--2--2--2--2-----------------------------|
     PM *  *  *  *  *  *  *  *  *  *  *  *  *  *



CHORUS
(both guitars, distortion)
E |------------------------------------------------------------------|
B |------------------------------------------------------------------|
G |o----------------------------------------------------------------o|
D |o--------------------6/7-7-7--7-7-7--4/5-5-5--5-5-5--------------o|
A |-----6h7-7-7--7-7-7--4/5-5-5--5-5-5--2/3-3-3--3-3-3--3-3--5-5-----|
D |-----6h7-7-7--7-7-7----------------------------------3-3--5-5-----|
    (play x 2)



POST-CHORUS
(guitar 1, distortion)
E |--------------------------------------------------------------------------------|
B |--------------------------------------------------------------------------------|
G |o-------------------------------------------------------------------------------|
D |o----------------------------------7--8--------------------------------7--------|
A |-----6h7--7-7--6h7--7-7--6h7--7-7--5--6--6h7--7-7--6h7--7-7--6h7--7-7--5--5-----|
D |-----6h7--7-7--6h7--7-7--6h7--7-7--------6h7--7-7--6h7--7-7--6h7--7-7-----5-----|

(guitar 2, distortion)
E |--------------------------------------------------------------------------------|
B |--------------------------------------------------------------------------------|
G |o----------------------------------7^-8^-------------------------------12^------|
D |o--------------------------------------------------------------------------12^--|
A |-----6h7--7-7--6h7--7-7--6h7--7-7--------6h7--7-7--6h7--7-7--6h7--7-7-----------|
D |-----6h7--7-7--6h7--7-7--6h7--7-7--------6h7--7-7--6h7--7-7--6h7--7-7-----------|


[ Tab from: http://www.guitartabs.cc/tabs/f/foo_fighters/the_one_tab_ver_4.html ]
VERSE 2
(both guitars, distortion)
E |--------------------------------------------------------|
B |--------------------------------------------------------|
G |--------------------------------------------------------|
D |--------------------------6-----------------------4-----|
A |-----7--7--7--7--6--6--6--6--5--5--5--5--4--4--4--4-----|
D |-----7--7--7--7--6--6--6--6--5--5--5--5--4--4--4--4-----|
     PM *  *  *  *  *  *  *     *  *  *  *  *  *  *

E |--------------------------------------------------------|
B |--------------------------------------------------------|
G |--------------------------------------------------7-----|
D |-----------------------------7--7--7--7--7--7--7--7-----|
A |-----3--3--3--3--2--2--2--2/-5--5--5--5--5--5--5--5-----|
D |-----3--3--3--3--2--2--2--2-----------------------------|
     PM *  *  *  *  *  *  *  *  *  *  *  *  *  *  *

E |--------------------------------------------------------|
B |--------------------------------------------------------|
G |--------------------------------------------------------|
D |--------------------------6-----------------------4-----|
A |-----7--7--7--7--6--6--6--6--5--5--5--5--4--4--4--4-----|
D |-----7--7--7--7--6--6--6--6--5--5--5--5--4--4--4--4-----|
     PM *  *  *  *  *  *  *     *  *  *  *  *  *  *

E |-----------------------------------------------------------------------------|
B |-----------------------------------------------------------------------------|
G |-----------------------------------------7-7-7-7-7-7-7-7-8-8-8-8-8-8-8-8-----|
D |-----------------------------7--7--7--7--7-7-7-7-7-7-7-7-8-8-8-8-8-8-8-8-----|
A |-----3--3--3--3--2--2--2--2/-5--5--5--5--5-5-5-5-5-5-5-5-6-6-6-6-6-6-6-6-----|
D |-----3--3--3--3--2--2--2--2--------------------------------------------------|
     PM *  *  *  *  *  *  *  *  *  *  *  *



    repeat CHORUS x 2



BRIDGE
E |--------------------------------------------------------|
B |--------------------------------------------------------|
G |--------------------------------------------------------|
D |--------------------------------------------------------|
A |-----0--0--0--0--0--0--0-1---3--3--3--3--3--3--3--3-----|
D |-----0--0--0--0--0--0--0-1---3--3--3--3--3--3--3--3-----|

E |--------------------------------------------------------|
B |--------------------------------------------------------|
G |--------------------------------------------------------|
D |--------------------------------------------------------|
A |-----5--5--5--5--5--5--5--5--0--0--0--0--0--0--0--1-----|
D |-----5--5--5--5--5--5--5--5--0--0--0--0--0--0--0--1-----|

E |--------------------------------------------------------|
B |--------------------------------------------------------|
G |--------------------------------------------------------|
D |--------------------------------------------------------|
A |-----3--3--3--3--3--3--3--3--5--5--5--5--5--5--5--5-----|
D |-----3--3--3--3--3--3--3--3--5--5--5--5--5--5--5--5-----|

E |--------------------------------------------|
B |--------------------------------------------|
G |--------------------------------------------|
D |--------------------------------------------|
A |-----0h2-2-2--0h2-2-2--0h2-2-2--2-2-1-1-----|
D |-----0h2-2-2--0h2-2-2--0h2-2-2--2-2-1-1-----|

(guitar 2, w/effect)
E |-------------------------------------------------|
B |-------------------------------------------------|
G |-------------------------------------------------|
D |-------------------------------------------8-----|
A |-----6h7-7-7-7--6h7-7-7-7--6h7-7-7-7-7-7-7-6-----|
D |-----6h7-7-7-7--6h7-7-7-7--6h7-7-7-7-7-7-7-------|



    repeat CHORUS x 2



OUTRO
(guitar 1, distortion)
E |------------------------------------------------------------------|
B |------------------------------------------------------------------|
G |------------------------------------------------------------------|
D |---------------------6/7-7-7--7-7-7--4/5-5-5--5-5-5---------------|
A |-----6h7-7-7--7-7-7--4/5-5-5--5-5-5--2/3-3-3--3-3-3--3-3--5-5-----|
D |-----6h7-7-7--7-7-7----------------------------------3-3--5-5-----|

E |------------------------------------------------------------------|
B |------------------------------------------------------------------|
G |------------------------------------------------------------------|
D |---------------------6/7-7-7--7-7-7--4/5-5-5--5-5-5-------7-------|
A |-----6h7-7-7--7-7-7--4/5-5-5--5-5-5--2/3-3-3--3-3-3--3-3--5-5-----|
D |-----6h7-7-7--7-7-7----------------------------------3-3----5-----|

E |--------------------------------------------|
B |--------------------------------------------|
G |--------------------------------------------|
D |--------------------------------------------|
A |-----6h7-7-7-7--6h7-7-7-7--7----------------|
D |-----6h7-7-7-7--6h7-7-7-7--7----------------|


(guitar 2, distortion)
E |--------------------------------------------------------------------10^-8-8h10p8-----|
B |-----9h10-10-10-10-10-10-9h10-10-10-10-10-10--9h10-10-10-10-10-10--------------------|
G |-------------------------------------------------------------------------------------|
D |-------------------------------------------------------------------------------------|
A |-------------------------------------------------------------------------------------|
D |-------------------------------------------------------------------------------------|

E |------------------------------------------------------------------------------|
B |-----9h10-10-10-10-10-10-9h10-10-10-10-10-10--9h10-10-10-10-10-10--/13--------|
G |-----------------------------------------------------------------------12-----|
D |------------------------------------------------------------------------------|
A |------------------------------------------------------------------------------|
D |------------------------------------------------------------------------------|
Comments