Foo Fighters - The One Chords & Tabs

 

The One Chords & Tabs

Foo Fighters Chords & Tabs

Version: 3 Type: Tab 0 ratings
1 star 2 stars 3 stars 4 stars 5 stars
comments

The One Tab

   
-------------------------------------------------------------------------------
			     THE ONE – Foo Fighters
-------------------------------------------------------------------------------

By: funkey munkey

This is a new song by the Foo Fighters who rock!!!!!! So please enjoy! And 
rate it! Explain why if it’s bad so I can make it better!

INTRO!

e|---------------------------------------------------------------------------|
B|---------------------------------------------------------------------------|
G|------------------------7--9-----------------------------------------------|
D|-5-/-7-/-5-/-7-/-5-/-7--x--x-----Do this three times-----------------------|
A|-5-/-7-/-5-/-7-/-5-/-7--5--7-----------------------------------------------|
E|-3-/-5-/-3-/-5-/-3-/-5-----------------------------------------------------|

then…

e|---------------------------------------------------------------------------|
B|---------------------------------------------------------------------------|
G|------------------------12--7----------------------------------------------|
D|-5-/-7-/-5-/-7-/-5-/-7--x---x----------------------------------------------|
A|-5-/-7-/-5-/-7-/-5-/-7--10--5----------------------------------------------|
E|-3-/-5-/-3-/-5-/-3-/-5-----------------------------------------------------|

POST VERSE (after first chorus)

e|---------------------------------------------------------------------------|
B|---------------------------------------------------------------------------|
G|------------------------7--9-------------------------12--7-----------------|
D|-5-/-7-/-5-/-7-/-5-/-7--x--x--5-/-7-/-5-/-7-/-5-/-7--x---x-----------------|
A|-5-/-7-/-5-/-7-/-5-/-7--5--7--5-/-7-/-5-/-7-/-5-/-7--10--5-----------------|
E|-3-/-5-/-3-/-5-/-3-/-5--------3-/-5-/-3-/-5-/-3-/-5------------------------|





VERSE! The verses are all the same, but sometimes he will hit a note open!
but all palm muted other wise!

e|---------------------------------------------------------------------------|
B|---------------------------------------------------------------------------|
G|----------------------------------------------------------/-7-7-7-7-7-7-7-7|
D|7-7-7-7-/-5-5-5-5-/-4-4-4-4-/-3-3-3-3-/-7-7-7-7-/-9-9-9-9-/-7-7-7-7-7-7-7-7|
A|7-7-7-7-/-5-5-5-5-/-4-4-4-4-/-3-3-3-3-/-7-7-7-7-/-9-9-9-9-/-5-5-5-5-5-5-5-5|
E|5-5-5-5-/-3-3-3-3-/-2-2-2-2-/-1-1-1-1-/-5-5-5-5-/-7-7-7-7------------------|

CHORUS!
[ Tab from: http://www.guitartabs.cc/tabs/f/foo_fighters/the_one_tab_ver_3.html ]
e|---------------------------------------------------------------------------|
B|---------------------------------------------------------------------------|
G|----------7-7-7-7--5-5-5-5-------------------------------------------------|
D|-7-7-7-7--7-7-7-7--5-5-5-5--3-3--5-5---------------------------------------|
A|-7-7-7-7--5-5-5-5--3-3-3-3--3-3--5-5---------------------------------------|
E|-5-5-5-5--------------------1-1--3-3---------------------------------------|

BRIDGE!

e|---------------------------------------------------------------------------|
B|---------------------------------------------------------------------------|
G|-7-7-7-7-7-7-7-7-----------------------------------------------------------|
D|-7-7-7-7-7-7-7-7--3-3-3-3-3-3-3-3--5-5-5-5-5-5-5-5-5-----------------------|
A|-5-5-5-5-5-5-5-5--3-3-3-3-3-3-3-3--5-5-5-5-5-5-5-5-5-----------------------|
E|------------------1-1-1-1-1-1-1-1--3-3-3-3-3-3-3-3-3-----------------------|

BRIDGE 2!

e|---------------------------------------------------------------------------|
B|---------------------------------------------------------------------------|
G|-7-/-9-/-7-/-9-/-7-/-9-/-7-/-9--5-5-Small solo part but not to sure bout --|
D|--------------------------------5-5—that yet?------------------------------|
A|-5-/-7-/-5-/-7-/-5-/-7-/-5-/-7--3-3----------------------------------------|
E|---------------------------------------------------------------------------|

That more or less it! Sorry I didn’t include the solo’s but I’m new to tabbing and 
if anyone knows I e-mail me with it if you can! Just put it together and enjoy playing!

SONG STUCTURE AND LYRICS!

INTRO x 1
VERSE x 2
CHORUS x 2
POST VERSE x 1
VERSE x 2
CHORUS x 4
BRIDGE x 2
BRIDGE 2 x 1
CHORUS x 6

Everyone makes one mistake			
One more time for old times sake	   	
One more time before the feeling fades                  

One that’s born of memories
One more bruise you gave to me		
One more test just how much I can take	

Cause you’re not the one but you’re the only one
Who can make me feel like this
You’re not the one but you’re the only one
Who can make me feel like shit
	
Something never meant to be
Everything you meant to me
Wake me when this punishment is done

Those who try to get away
From the one who gets away
Someone’s always someone ele’s one

Cause you’re not the one but you’re the only one
Who can make me feel like this
You’re not the one but you’re the only one
Who can make me feel like shit
You’re not the one but you’re the only one
Who can make me feel like this
You’re not the one but you’re the only one
Who can make me feel like shit
	
Until the end of time
In another life
Until the day I die
Save it up for one more try
Save it for the last goodbye

We go on and get off
And get on and get off

Cause you’re not the one but you’re the only one
Who can make me feel like this
You’re not the one but you’re the only one
Who can make me feel like shit
You’re not the one but you’re the only one
Who can make me feel like this
You’re not the one but you’re the only one
Who can make me feel like shit	
You’re not the one but you’re the only one
Who can make me feel like this
You’re not the one but you’re the only one
Who can make me feel like… ooohhhhhh SHIT!!!!
	
Please email anything if you like or dislike!
funkeymonkey10@hotmail.com 
Comments