Foo Fighters - The One Chords & Tabs

 

The One Chords & Tabs

Foo Fighters Chords & Tabs

Version: 2 Type: Tab 0 ratings
1 star 2 stars 3 stars 4 stars 5 stars
comments

The One Tab

------------------------------------------------------------
                       The one- Foo fighters
------------------------------------------------------------

By:Philip Patching
crocodilehunt01@hotmail.com

I think this is close
[ Tab from: http://www.guitartabs.cc/tabs/f/foo_fighters/the_one_tab_ver_2.html ]
intro
E----------------------------------------
B----------------------------------------
G-----------------6-7--------------------
D---6-7-7-6-7-7---6-7--------------------
A---6-7-7-6-7-7---4-5--------------------
E---4-5-5-4-5-5--------------------------
verse
E-----------------------------------------
B-----------------------------3-3---------
G-----------------------------2-2---------
D----7-7-7-7-5-5-4-4-3-3-2-2--0-0---------
A----7-7-7-7-5-5-4-4-3-3-2-2--------------
E----5-5-4-4-3-3-2-2-1-1-0-0--------------   p.m
chorus
E-----------------------------------------
B-----------------------------------------
G--------------7-7-7-7--------------------
D----7-7-7-7---7-7-7-7---3-3-3-3---5-5-5-5
A----7-7-7-7---5-5-5-5---3-3-3-3---5-5-5-5
E----5-5-5-5-------------1-1-1-1---3-3-3-3
intro
E----------------------------------------
B----------------------------------------
G-----------------6-7--------------------
D---6-7-7-6-7-7---6-7--------------------
A---6-7-7-6-7-7---4-5--------------------
E---4-5-5-4-5-5--------------------------
verse
E-----------------------------------------
B-----------------------------3-3---------
G-----------------------------2-2---------
D----7-7-7-7-5-5-4-4-3-3-2-2--0-0---------
A----7-7-7-7-5-5-4-4-3-3-2-2--------------
E----5-5-4-4-3-3-2-2-1-1-0-0--------------   p.m
chorus
E-----------------------------------------
B-----------------------------------------
G--------------7-7-7-7--------------------
D----7-7-7-7---7-7-7-7---3-3-3-3---5-5-5-5
A----7-7-7-7---5-5-5-5---3-3-3-3---5-5-5-5
E----5-5-5-5-------------1-1-1-1---3-3-3-3
bridge
E-----------------------------------------
B-----------------------------------------
G----7-7-7-7-8-10-10-10-10----10-8-7-7-7-7-
D----7-7-7-7-8-10-10-10-10----10-8-7-7-7-7-
A----5-5-5-5-6-8--8--8--8-----8-6-5-5-5-5--
E-----------------------------------------
"on again off again"
E-----------------------------------------
B-----------------------------------------
G---10-12-10-12-12-12---------------------
D---10-12-10-12-12-12---------------------
A---8--10--8-10-10-10---------------------
E-----------------------------------------
chorus
E-----------------------------------------
B-----------------------------------------
G--------------7-7-7-7--------------------
D----7-7-7-7---7-7-7-7---3-3-3-3---5-5-5-5
A----7-7-7-7---5-5-5-5---3-3-3-3---5-5-5-5
E----5-5-5-5-------------1-1-1-1---3-3-3-3
end   (feel like shit!)
E-----------------------------------------
B-----------------------------------------
G----2------------------------------------
D----2------------------------------------
A----0------------------------------------
E-----------------------------------------

hope it helps
Comments