Foo Fighters - The One Chords & Tabs

 

The One Chords & Tabs

Foo Fighters Chords & Tabs

Version: 2 Type: Bass Tab 0 ratings
1 star 2 stars 3 stars 4 stars 5 stars
comments

The One Bass Tab

   
Artist-Foo Fighters
Track-The One
Album-Orange County Soundtrack

Every tab for this I've seen is in Drop-D but I know the Foo Fighters play in standard 
tuning so here it is.

Intro
G:-----------------------|  |----------------------------|
D:-----------------------|x3|----------------------------|x1
A:-------------------5-7-|  |----------------------567-5-|
E:-3-555-3-555-3-555-----|  |-3-555-3-555-3-555-345------|  

1st Verse
G:----------------------------------------------------------
D:-------------------------------------------------0-0-0-0-0
A:----------------------------------------------------------
E:-5-5-5-5-4-4-4-4-3-3-3-3-2-2-2-2-1-1-1-1-0-0-0-0----------

G:-4h5---------------------------------------------------
D:----5-7------------------------------------------------
A:-------------------------------------------------------
E:--------5-5-5-5-4-4-4-4-3-3-3-3-2-2-2-2-1-1-1-1-0-0-0-0

G:----------------------|
D:----------------------|x1
A:-5-5-5-5-5-5-66666666-|
E:----------------------|

1st Chorus
G:---------------------------------------|
D:---------------------------------------|x2
A:-----------4-555-555-2-333-333---------|
E:-3-555-555---------------------1-1-3-3-|

Post Chorus
G:-------------------------------------------------|
D:-------------------------------------------------|x1
A:-------------------5-7-------------------455-----|
E:-3-555-3-555-3-555-----3-555-3-555-3-555-----333-|
[ Tab from: http://www.guitartabs.cc/tabs/f/foo_fighters/the_one_btab_ver_2.html ]
2nd Verse
G:--------------------------------------------------------
D:--------------------------------------------------------
A:-------------------------------------------------5-5-5-5
E:-5-5-5-5-4-4-4-4-3-3-3-3-2-2-2-2-1-1-1-1-0-0-0-0--------

G:--------------------------------------------------------
D:--------------------------------------------------------
A:-5-5-5-6------------------------------------------------
E:---------5-5-5-5-4-4-4-4-3-3-3-3-2-2-2-2-1-1-1-1-0-0-0-0

G:---------------------------|
D:---------------------------|x1
A:-5-5-5-5-55555555-66666666-|
E:---------------------------|

2nd Chorus
G:---------------------------------------|
D:---------------------------------------|x4
A:-----------4-555-555-2-333-333---------|
E:-3-555-555---------------------1-1-3-3-|

Bridge
G:-------------------------------------------------|
D:-------------------------------------------------|x2
A:-5-5-5-5-5-5-5-6---------------------------------|
E:-----------------1-1-1-1-1-1-1-1-3-3-3-3-3-3-3-3-|

G:----------------------------------|
D:----------------------------------|x1
A:-5/77777/5/77777/5/77/666/555/333-|
E:----------------------------------|

Outro
G:---------------------------------------|
D:---------------------------------------|x5
A:-----------4-555-555-2-333-333---------|
E:-3-555-555---------------------1-1-3-3-|

G:---------------------------------------|
D:---------------------------------------|x1
A:-----------4-555-555-2-333-333-----3---|
E:-3-555-555---------------------3-3---5-|

G:------------|
D:------------|x1
A:------------|
E:-9////////1-|
Comments