Foo Fighters - Still Chords & Tabs

 

Still Chords & Tabs

Foo Fighters Chords & Tabs

Version: 1 Type: Bass Tab

Still Bass Tab

   
-------------------------------------------------------------------------------
			     STILL - Foo Fighters
-------------------------------------------------------------------------------

Tabbed By :39/Smooth 

Intro/Outro
G|----------------------|
D|----------------------|
A|----------------------|
E|-8--8--6---6--8--8--6-|


Verse
G|----------------------|
D|----------------------|
A|----------------------|
E|-8--8--6---6--8--8--6-|

G|----------------------|
D|----------------------|
A|----------------------|
E|-8--8--6---6--8--8--6-|

G|----------------------|
D|----------------------|
A|----------------------|
E|-4--4--6---6--4--4--6-|
[ Tab from: http://www.guitartabs.cc/tabs/f/foo_fighters/still_btab.html ]
G|----------------------|
D|----------------------|
A|----------------------|
E|-8--8--6---6--8--8--6-|


Pre-Chorus
G|-----|
D|-----|
A|-----|
E|-1---|


Chorus
G|---------------------|
D|---------------------|
A|---------------------|
E|-4----6----1----1--1-|

G|---------------------|
D|---------------------|
A|---------------------|
E|-4----6----1----1--1-|

G|---------------------|
D|---------------------|
A|---------------------|
E|-4----6----1----1--1-|

G|----------------|
D|----------------|
A|-0---0---0---0--|
E|----------------|

| /  slide up
| \  slide down
| h  hammer-on
| p  pull-off
| ~  vibrato
| +  harmonic
| x  Mute note
===============================================================================