Foo Fighters - Stacked Actors Chords & Tabs

 

Stacked Actors Chords & Tabs

Foo Fighters Chords & Tabs

Version: 9 Type: Tab 0 ratings
1 star 2 stars 3 stars 4 stars 5 stars
comments

Stacked Actors Tab


Tablatura de NICO M. (nicokbbl@hotmail.com)

Artista: Foo Fighters
Cancion: Stacked Actors
Album: There Is Nothing Left To Lose (1999) 




Intro/Coro  
1||--------------------------------------------------------------------------||
2||--------------------------------------------------------------------------||
3||------------------------------------------------------<4>-<4>-------------||
4||------------------------------------------------------<4>-<4>-------------||
5||--0-0--3-5-5-3--3/10-10--3-5-5-3--3/-8-8--1/6-6-5-3-0---------0--6-6-5-3--||
6||--0-0--3-5-5-3--3/10-10--3-5-5-3--3/-8-8--1/6-6-5-3-0---------0--6-6-5-3--||



(Gtr. 1)
1||--------------------|------------------||
2||--1-1-1-1/3-3-1-1-1-|-1-1-1-4-4-3-1-1--||
3||--0-0-0-0/0-0-0-0-0-|-0-0-0-0-0-0-0-0--||
4||--2-2-2-2/4-4-2-2-2-|-2-2-2-5-5-4-2-2--||
5||--0-0-0-3/5-5-3-0-0-|-0-0-0-6-6-5-3-0--||
6||--------------------|------------------||
  (3x)                 (1x)

(Gtr. 2, con retardo) (with delay)
1||--------------------------------||
2||--1===========================--||
3||--0===========================--||
4||--2===========================--||
5||--0===========================--||
6||--------------------------------||


Pre-Chorus (Gtr. 1, repite rapidamente lo primero) 
1||----------------------------------------||
2||----------------------------------------||
3||----------------------------------------||
4||----------------------------------------||
5||----------------------------------------||
6||--0-------0-------0----0----0--0--0--0--||

[ Tab from: http://www.guitartabs.cc/tabs/f/foo_fighters/stacked_actors_tab_ver_9.html ]
Solo 
1||---------------------------------------------------||
2||-------------8-7-8-7-5-----------------------------||
3||--7b8b7-5------------------7b8b7-5--------4b5b4b5--||
4||----------7------------5-7---------7--5-7----------||
5||---------------------------------------------------||
6||---------------------------------------------------||


Solo 
1|---------------------------------------------------------------------|
2|---------------------------------------------------------------------|
3|---------------------------------------------------------------------|
4|---------------------------------------------------------------------|
5|---------------------------------------------------------------------|
6|--0---0-3-5-5-5p3--0---0-3-5-5-5p3--0---0-3-5-5-5p3--6-6-5-3-6-6-5-3-|

                             
1|------------------------------------------------------------|
2|------------------------------------------------------------|
3|----------------------5---5---5-7-7b8b7-7-5-7-~~~~~~~~~~~~~-|
4|-5-5-5-5-5/4-4-4-4--7---7---7-------------------------------|
5|------------------------------------------------------------|
6|------------------------------------------------------------|

1|-------------------------------------------------|
2|-------------------------------------------------|
3|-----------------------------------5-----------5-|
4|-7\5-5\4-4\2-7\5-5\4-4\2-7\5-5\4-4---7\5-5\4-4---|
5|-------------------------------------------------|
6|-------------------------------------------------|

1|--------------------------------------------------------------------|
2|--------------------------------------------------------------------|
3|-----------------------5-----6-6-6-5/6-6-6-5/6-6-6-5/6-6-6-5/6-6-6--|
4|-7\5-5\4-4\2-7\5-5\4-4---4/5-------4/5-5-5-4/5-5-5-4/5-5-5-4/5-5-5--|
5|--------------------------------------------------------------------|
6|--------------------------------------------------------------------|
Comments