Foo Fighters - Stacked Actors Chords & Tabs

 

Stacked Actors Chords & Tabs

Foo Fighters Chords & Tabs

Version: 6 Type: Tab 0 ratings
1 star 2 stars 3 stars 4 stars 5 stars
comments

Stacked Actors Tab

Transcribed by: Gavin 
   Email: freak_of_nature1579@yahoo.com 
   Artist: Foo Fighters 
   Song Title: Stacked Actors 
   Released: October 1999 
   Album- There is Nothing Left to Lose 
   Tabbed: 4-12-99 

   I didn't like this song when I first heard it, but it is one of those 
   that grows on you. After listening to it a few times it has now become 
   one of my favourites off the album, lyrically also. 

   Drop D Tuning 

   Intro/Chorus (riff 1) 
   3X 
   e|---------------------------------------------------------| 
   B|---------------------------------------------------------| 
   G|----------------------------------------------4-4--------| 
   D|--0--0--3-553/--10--10\--3-553/--8--8--77653--4-4--4-6653| 
   A|--0--0--3-553/--10--10\--3-553/--8--8--77653-------4-6653| 
   D|--0--0--3-553/--10--10\--3-553/--8--8--77653-------4-6653| 

   1X 
   e|--------------------------------------------------------- 
   B|--------------------------------------------------------- 
   G|--------------------------------------------------------- 
   D|--0--0--3-553/--10--10\--3-553/--8--8--77653------------- 
   A|--0--0--3-553/--10--10\--3-553/--8--8--77653------------- 
   D|--0--0--3-553/--10--10\--3-553/--8--8--77653------------- 


   Verse (riff 2) 
   Guitar 1 plays: 
   3X 1X 
   e|-0----3/55\3-----|---77/6\5------------------------------- 
   B|-1----1/33\1-----|---55/4\3------------------------------- 
   G|-0----0/00\0-----|---00/0\0------------------------------- 
   D|-2----2/44\2-----|---66/5\4------------------------------- 
   A|-0----3/55\3-----|---77/6\5------------------------------- 
   D|-----------------|---------------------------------------- 

   Guitar two plays this chord and lets it ring. 
   e|-0-------------------------------------------------------- 
   B|-1-------------------------------------------------------- 
   G|-0-------------------------------------------------------- 
   D|-2-------------------------------------------------------- 
   A|-0-------------------------------------------------------- 
   D|---------------------------------------------------------- 
   (obviously using some effects pedal) 

   Oh mirror mirror, your'e coming in clear 
   I'm finally somewhere in between 
   I'm impressed what a beautiful chest 
   I never meant to make a big scene 
   Will you resign to the latest design 
   You look so messy when you dress up in dreams 
   One more for hire, a wonderful liar 
   I think its time we should all become clean 


   Pre Chorus (riff 3) 
   e|--------------------------------------------------------- 
   B|--------------------------------------------------------- 
   G|--------------------------------------------------------- 
   D|--0-------------------0----------------------0------------ 
   A|--0-------------------0----------------------0------------ 
   D|--0-------------------0----------------------0------------ 
   Stack dead actors Stacked to the rafters Line up all 
   e|--------------------------------------------------------- 
   B|--------------------------------------------------------- 
   G|--------------------------------------------------------- 
   D|---0-------------------0--0--0--------------------------- 
   A|---0-------------------0--0--0--------------------------- 
   D|---0-------------------0--0--0--------------------------- 
   the bastards all I want is the truth 


   Chorus (riff 1) 
[ Tab from: http://www.guitartabs.cc/tabs/f/foo_fighters/stacked_actors_tab_ver_6.html ]
   Hey Hey now, can you fake it 
   Can you make it look like we want 
   Hey Hey now, can you take it 
   And we cry when they all die blonde 

   Verse 2 (riff 2) 

   little solo before second verse (guitar 2): 
   e|--2h3-0-2h3-2-0------------------------------------------ 
   B|------------------------------320------------------------ 
   G|-------------------------0-2--------0-2h4-2b-2b---------- 
   D|--------------------------------------------------------- 
   A|--------------------------------------------------------- 
   D|--------------------------------------------------------- 

   God bless, what a sensitive mess 
   Yeah but things aren't always what they seem 
   Your teary eyes, your famous disguise 
   Never knowing who to believe 
   See through yeah, but what do you do 
   When you're just another ageing drag queen 

   Pre Chorus (riff 3) 

   Chorus 2 (riff 1) 

   Hey Hey now, can you fake it 
   Can you make it look like we want 
   Hey Hey now, can you take it 
   And we cry when they all die blonde 
   Stack dead actors. Stacked to the rafters 
   Line up all the bastards all I want is the truth 
   Stack dead actors. Stacked to the rafters 
   Line up all the bastards 
   And we cry when they all die blonde 

   Solo 
   Guitar 2 plays repeatedly: 
   3x 1x 
   e|------------|-------------------------------------------- 
   B|------------|-------------------------------------------- 
   G|------------|-------------------------------------------- 
   D|-0---3553---|--6653-6653--------------------------------- 
   A|-0---3553---|--6653-6653--------------------------------- 
   D|-0---3553---|--6653-6653--------------------------------- 

   Guitar 1: 
   e|--------------------------------------------------------- 
   B|--------------------------------------------------------- 
   G|--------------------------------------------------------- 
   D|------------------------------10-12-10-----10----12b----- 
   A|--10b10b10b10b10p9h1010b10b-12---------1212---12--------- 
   D|--------------------------------------------------------- 

   e|--------------------------------------------------------- 
   B|--------------------------------------------------------- 
   G|--------------------------------------------------------- 
   D|--------------------------------------------------------- 
   A|-12b12b12b12b12b12b12b12b12b12b12b12b12b12b/------------- 
   D|--------------------------------------------------------- 

   e|---------------------------------------------------------- 
   B|---------------------------------------------------------- 
   G|--1414-1212-1111--9-9-1414-1212-1111--9-9--1414-1212------ 
   D|---x-x--x-x--x-x--x-x--x-x--x-x--x-x--x-x---x-x--x-x----11 
   A|--1212-1010--9-9--7-7-1212-1010--9-9--7-7--1212-1010--9--- 
   D|---------------------------------------------------------- 

   e|---------------------------------------------------------- 
   B|---------------------------------------------------------- 
   G|-1414-1212--------14--1212-1111--9-9--14--1212------------ 
   D|--x-x--x-x----11---x---x-x--x-x--x-x---x---x-x----11------ 
   A|-1212-1010--9-----12--1010--9-9--7-7--12--1010--9----10b10b 
   D|---------------------------------------------------------- 

   e|---------------------------------------------------------- 
   B|---------------------------------------------------------- 
   G|---------------------------------------------------------- 
   D|---------------------------------------------------------- 
   A|-10b10b/--------------------------------------------------- 
   D|---------------------------------------------------------- 

   Chorus (riff 1) 

   Outro (riff 2) 
Comments