Foo Fighters - Stacked Actors Chords & Tabs

 

Stacked Actors Chords & Tabs

Foo Fighters Chords & Tabs

Version: 4 Type: Tab 0 ratings
1 star 2 stars 3 stars 4 stars 5 stars
comments

Stacked Actors Tab

"Stacked Actors" 
Foo Fighters
There Is Nothing Left To Lose,1999
Tabbed By:Salvador Manuel

Intro (distorted)
                                                
E:-----------------------------------------------------------------|
B:-----------------------------------------------------------------|
G:---------------------------------------------5b6-5b6-------------|
D:-2-2--2-5-2-5--7-7--3-5-3-5--6-6--5-5-4-3-2----------7-5-5-4-3-2-|
A:-2-2--2-5-2-5--7-7--3-5-3-5--6-6--5-5-4-3-2----------7-5-5-4-3-2-|
E:-0-0--0-3-0-3--5-5--1-3-1-3--4-4--3-3-2-1-0----------5-3-3-2-1-0-|

Verse

E:-------| This chord is played about roughly
B:---0---| every 7 seconds during the verse.
G:---1---| 
D:---2---|  
A:---2---| 
E:---0---| 

Chorus (distorted)
E:----------------------------------------------|
B:----------------------------------------------|
G:----------------------------------------------|
D:-2-------2-------2-----2----2-2-2-------------|
A:-2-------2-------2-----2----2-2-2-------------|
E:-0-------0-------0-----0----0-0-0-------------|
[ Tab from: http://www.guitartabs.cc/tabs/f/foo_fighters/stacked_actors_tab_ver_4.html ]
E-----------------------------------------------------------------|
B-----------------------------------------------------------------|
G---------------------------------------------5b6-5b6-------------|
D-2-2--2-5-2-5--7-7--3-5-3-5--6-6--5-5-4-3-2----------7-5-5-4-3-2-|
A-2-2--2-5-2-5--7-7--3-5-3-5--6-6--5-5-4-3-2----------7-5-5-4-3-2-|
E-0-0--0-3-0-3--5-5--1-3-1-3--4-4--3-3-2-1-0----------5-3-3-2-1-0-|

2nd Verse
E:---------------------------------------------------------|
B:---------------------------------------------------------|
G:-7/5-------5/7--4h5/7--5-4~-------2--5p2----0h2/5-4-5-4--|
D:-------------------------------5---------5---------------|
A:---------------------------------------------------------|
E:---------------------------------------------------------|

Presolo (play x 3)
E:------------------|
B:------------------|
G:------------------|
D:------------------|
A:------------------|
E:-0--0-3-5-7-7/5-0-|

Solo
E----------------------------------------------------------------|
B----------------------------------------------------------------|
G-4b5-4b5-4b5-4b5-4b5r4-2b3r2-4b5r4--/5-4-5-2--2-5--0-2-4/8b9r8~-|
D----------------------------------------------------------------|
A----------------------------------------------------------------|
E----------------------------------------------------------------|

E------------------------------------------------------|
B------------------------------------------------------|
G-8b9-8-8b9-8b9-repeat this bending more times---------|
D------------------------------------------------------|
A------------------------------------------------------|
E------------------------------------------------------|      
Comments