Foo Fighters - Stacked Actors Chords & Tabs

 

Stacked Actors Chords & Tabs

Foo Fighters Chords & Tabs

Version: 1 Type: Bass Tab 0 ratings
1 star 2 stars 3 stars 4 stars 5 stars
comments

Stacked Actors Bass Tab

===============================
== Title  - 'Stacked Actors' ==
== Artist - The Foo Fighters ==
== Album  - There Is Nothing ==
==	      Left To Lose   ==
===============================

Bass Tab By Kris Kilmore 
Q&A - kkilmore@jargonnet.co.uk


I have seen a few versions of this bass tab and found most of
them to be incorrect or right in places and wrong in others so
here is my own interpretation which i believe is 99% correct.
(I have'nt bothered with the timing marks cos its easy)


Standard Tuning

Intro/Chorus

E-|-------8-10-10-8---------8-10-10-8-------11-11-10-8-10--8-11-11-10-8-|
A-|--0-0-------------10-10-------------8-8------------------------------|
D-|---------------------------------------------------------------------|
G-|---------------------------------------------------------------------|

Verse 

There are several variations played after the slide in this riff. I have
tabbed what i believe to be the first few. You can easily get away with
improvising around G, A, C & D after the slide bit just listen to CD to get
the idea. (Its a simple square pattern)

E-|----------------------5-3-5--------------------------0-3-5----|
A-|--0------3-------3-3--------3-5--0-----3--------3-3--------3--|
D-|----2-------4\5--------------------2------4\5-----------------|
G-|------2------------------------------2------------------------|

continued from above...
[ Tab from: http://www.guitartabs.cc/tabs/f/foo_fighters/stacked_actors_btab.html ]
E-|-----------------------5---5-3-|
A-|--0-----3--------3-5-3---3-----|
D-|----2------4\5-----------------|
G-|------2------------------------|

Every Four Play This Riff...

E-|--------------------------------|
A-|--0-----3-----------------------|
D-|----2------4\5---7---7----------|
G-|------2------------5---8-8-7-5--|

The verse riff continues under the guitar before the chorus, under the A riff.

Bridge (p = pulloff)

E-|---------------------------------------|
A-|--0-0-3-5---5p3p0---6-6-5-3---6-6-5-3--|
D-|---------------------------------------|
G-|---------------------------------------|

Outro

I have'nt quite figured this out completly. But here's what I have got

It's around simple chord patterns... Use this pattern to help figure it out.

E-|-----|
A-|--0--| Using this shape you can get some of the outro lines
D-|--7--| below is one of the outro bits i think is right if anyone
G-|--9--| has figured this out please send me it cos its bugging me!
	  Mail me at - foobass@jargonnet.co.uk

E-|-----------------|
A-|--0--------------|
D-|----------10--9--|
G-|------9-7--------|

Thats It.. real easy once you get the verse riff right. Just listen carefully and
you will see it is right!! No really im telling you it is!

By K Kilmore

With thanks to the peeps at the 'Bass Tab Archive' for a great site!
Also thanks to Chris Dale

Check out my site at www.jargonnet.co.uk
(My sites gonna change soon cos i dont like it anymore)

Comments