Foo Fighters - Sign Chords & Tabs

 

Sign Chords & Tabs

Foo Fighters Chords & Tabs

Version: 1 Type: Tab 0 ratings
1 star 2 stars 3 stars 4 stars 5 stars
comments

Sign Tab

Foo Fighters - The Sign

Artist: Foo Fighters
Album: In Your Honor (Bonus)
Genre: Rock

Tuning: eBGDAE

Intro
   Gtr. Lead
e||--0--0--0--0--0--0--0--0--0--0--0--0--0--0--0--0--0--0--0--||
B||--14-14-14-15-15-15-15-14-14-14-14-14-12-12-12-12-12-12-12-||
G||-----------------------------------------------------------||
D||-----------------------------------------------------------||
A||-----------------------------------------------------------||
E||-----------------------------------------------------------||

   Gtr. Rhythm
e||-------|-----------------------------------------||
B||-------|-----------------------------------------||
G||--7----|--7-7-7-7-7-7-7-7-7-7-7-7-7-7-7-7-7-7-7--||
D||--7----|--7-7-7-7-7-7-7-7-7-7-7-7-7-7-7-7-7-7-7--||
A||--5----|--5-5-5-5-5-5-5-5-5-5-5-5-5-5-5-5-5-5-5--||
E||-------|-----------------------------------------||

     ^ v ^ v ^ v ^ v ^ v ^ v ^ v ^ v ^ v ^ v ^ v ^
e||-------------------------------------------------||
B||-------------------------------------------------||
G||--7-x-7-x-7-x-7-x-7-x-7-x-7-x-7-x-7-x-7-x-7-x-7--||
D||--7-x-7-x-7-x-7-x-7-x-7-x-7-x-7-x-7-x-7-x-7-x-7--||
A||--5-x-5-x-5-x-5-x-5-x-5-x-5-x-5-x-5-x-5-x-5-x-5--||
E||-------------------------------------------------||


Verse
   Gtr. Lead
e||--0--0--0--0--0--0--0--0--0--0--0--0--0--0--0--0--0--0--0--||
B||--14-14-14-15-15-15-15-14-14-14-14-14-12-12-12-12-12-12-12-||
G||-----------------------------------------------------------||
D||-----------------------------------------------------------||
A||-----------------------------------------------------------||
E||-----------------------------------------------------------||

   Gtr. Rhythm
e||-----------------------------------------------------------||
B||-----------------------------------------------------------||
G||--7-7-7-7-7-7-7-7-7-7-7-7-7-7------------------------------||
D||--7-7-7-7-7-7-7-7-7-7-7-7-7-7--5-5-5-5-5-5-5-5-5-5-5-5-5---||
A||--5-5-5-5-5-5-5-5-5-5-5-5-5-5--5-5-5-5-5-5-5-5-5-5-5-5-5---||
E||-------------------------------3-3-3-3-3-3-3-3-3-3-3-3-3---||


Pre-Chorus
   Gtr. Rhythm
e||-----------------------------------------------------------------------------||
B||-----------------------------------------------------------------------------||
G||--11-11-11-11-11-11-11-11-11-9-9-9-9-9-9-9-9-7-7-7-7-7-7-7-7-9-9-9-9-9-9-9-9-||
D||--11-11-11-11-11-11-11-11-11-9-9-9-9-9-9-9-9-7-7-7-7-7-7-7-7-9-9-9-9-9-9-9-9-||
A||--9--9--9--9--9--9--9--9--9--7-7-7-7-7-7-7-7-5-5-5-5-5-5-5-5-7-7-7-7-7-7-7-7-||
E||-----------------------------------------------------------------------------||

   Gtr. Lead
e||--------------------------------------------------------------------------------||
B||--------------------------------------------------------------------------------||
G||--11-11-11-11-11-11-11-11-11-9-9-9-9-9-9-9-9-7-7-7-7-7-7-7-7-13-13-13-13-13-13--||
D||--x--x--x--x--x--x--x--x--x--x-x-x-x-x-x-x-x-x-x-x-x-x-x-x-x-x--x--x--x--x--x---||
A||--9--9--9--9--9--9--9--9--9--7-7-7-7-7-7-7-7-5-5-5-5-5-5-5-5-11-11-11-11-11-11--||
E||--------------------------------------------------------------------------------||
[ Tab from: http://www.guitartabs.cc/tabs/f/foo_fighters/sign_tab.html ]
   Gtr. Rhythm
e||-----------------------------------------------------------------------------||
B||-----------------------------------------------------------------------------||
G||--11-11-11-11-11-11-11-11-11-9-9-9-9-9-9-9-9-7-7-7-7-7-7-7-7-7-7-7-7-7-7-7-7-||
D||--11-11-11-11-11-11-11-11-11-9-9-9-9-9-9-9-9-7-7-7-7-7-7-7-7-7-7-7-7-7-7-7-7-||
A||--9--9--9--9--9--9--9--9--9--7-7-7-7-7-7-7-7-5-5-5-5-5-5-5-5-5-5-5-5-5-5-5-5-||
E||-----------------------------------------------------------------------------||

   Gtr. Lead
e||-----------------------------------------------------------------------------||
B||-----------------------------------------------------------------------------||
G||--11-11-11-11-11-11-11-11-11-9-9-9-9-9-9-9-9-7-7-7-7-7-7-7-7-7-7-7-7-7-7-7-7-||
D||--x--x--x--x--x--x--x--x--x--x-x-x-x-x-x-x-x-x-x-x-x-x-x-x-x-x-x-x-x-x-x-x-x-||
A||--9--9--9--9--9--9--9--9--9--7-7-7-7-7-7-7-7-5-5-5-5-5-5-5-5-5-5-5-5-5-5-5-5-||
E||-----------------------------------------------------------------------------||


Chorus
   Gtr. Rhythm
e||-----------------------------------||
B||-----------------------------------||
G||--7-7-7-7-7-7-7-7-7-7-7-7-7-7-7-7--|| (2 times)
D||--7-7-7-7-7-7-7-7-7-7-7-7-7-7-7-7--||
A||--4/5-5-5-5-5-5-5-5-5-5-5-5-5-5-5--||
E||-----------------------------------||

e||---------------------------------------------------||
B||---------------------------------------------------||
G||---------------------------------------------------||
D||--5-5-5-5-5-5-5-5-2-2-2-2-2-2-2-2-5-5-5-5-5-5-5-5--||
A||--5-5-5-5-5-5-5-5-2-2-2-2-2-2-2-2-5-5-5-5-5-5-5-5--||
E||--3-3-3-3-3-3-3-3-0-0-0-0-0-0-0-0-3-3-3-3-3-3-3-3--||

   Gtr. Lead
e||--0--0--0--0--0--0--0--0--0--0--0--0--0--0--0--0--0--0--0--||
B||--14-14-14-15-15-15-15-14-14-14-14-14-12-12-12-12-12-12-12-||
G||-----------------------------------------------------------||
D||-----------------------------------------------------------||
A||-----------------------------------------------------------||
E||-----------------------------------------------------------||
   (I know it not exactly as the verse)


Interlude
   Gtr. Rhythm
e||-----------------------------------------------------------------------------||
B||-----------------------------------------------------------------------------||
G||--11-11-11-11-11-11-11-11-11-9-9-9-9-9-9-9-9-7-7-7-7-7-7-7-7-9-9-9-9-9-9-9-9-||
D||--x--x--x--x--x--x--x--x--x--x-x-x-x-x-x-x-x-x-x-x-x-x-x-x-x-x-x-x-x-x-x-x-x-||
A||--9--9--9--9--9--9--9--9--9--7-7-7-7-7-7-7-7-5-5-5-5-5-5-5-5-7-7-7-7-7-7-7-7-||
E||-----------------------------------------------------------------------------||

   Gtr. Lead
e||--0--0--0--0--0--0--0--0--0--0--0--0--0--0--0--0-0-0-0-0-0-0-0-0-0-0-0-0--0-0-||
B||--12-12-12-12-12-12-12-12-10-10-10-10-12-10-10-8-8-8-8-8-8-8-8-9-9-9-9-10-9-9-||
G||------------------------------------------------------------------------------|| (3 times)
D||------------------------------------------------------------------------------||
A||------------------------------------------------------------------------------||
E||------------------------------------------------------------------------------||

e||--0--0--0--0--0--0--0--0--0--0--0--0--0--0--0--0-0-0-0-0-0-0-0-0-0-0-0-0-0-0--||
B||--12-12-12-12-12-12-12-12-10-10-10-10-12-10-10-8-8-8-8-8-8-8-8-8-8-8-8-8-8-8--||
G||------------------------------------------------------------------------------||
D||------------------------------------------------------------------------------||
A||------------------------------------------------------------------------------||
E||------------------------------------------------------------------------------||


Outro
   Both Guitars
     ^ v ^ v ^ v ^ v ^ v ^ v ^ v ^ v ^ v ^ v ^ v ^
e||-------------------------------------------------||
B||-------------------------------------------------||
G||--7-x-7-x-7-x-7-x-7-x-7-x-7-x-7-x-7-x-7-x-7-x-7--||
D||--7-x-7-x-7-x-7-x-7-x-7-x-7-x-7-x-7-x-7-x-7-x-7--||
A||--5-x-5-x-5-x-5-x-5-x-5-x-5-x-5-x-5-x-5-x-5-x-5--||
E||-------------------------------------------------||
Comments