Foo Fighters - Rope Chords & Tabs

 

Rope Chords & Tabs

Foo Fighters Chords & Tabs

Version: 1 Type: Tab

Rope Tab

   
Gtr I (E A D G B E) - 'ROPE'by 'FOO FIGHTERS'

Hey guys this is my first tab. I'm pretty sure this is the first tab on the 
internet of Rope so I'm pretty excited.

This sounds accurate enough, and you wouldn't believe how long I spent trying to figure this out.

FOR GOD'S SAKE, PLEASE, SOMEONE IMPROVE THIS. I BEG YOU.
The reason I put this up is to be respected and have someone improve it. So please do.
thanks, 
-llerom

[This part is  
played with the                |
delay effect, twice, then this V with distortion]
e|-0---7---3---3----|----------------|
B|-3---7---6---6----|----------------|
G|-2---9---5---5----|----------------|
D|------------------|----------------|
A|------------------|-----5-7-5-0----|
E|------------------|-5-7------------|


This is the main riff played twice. On second time...
e|--------------------------------------------------------------------|
B|--------------------------------------------------------------------|
G|--11-11-11-9-11--11-11-11-14-11----10-10-10-9-10----10-10-10-9-10---|
D|--------------------------------------------------------------------|
A|---9--9--9-7--9---9--9--9-12--9-----8--8--8-7--8-----8--8--8-7--8-0-|
E|--------------------------------------------------------------------|

Play this part.
e|--------------|
B|--------------|
G|--------------|
D|--------------|
A|-----5-7-5-0--|
E|-5-7----------|


VERSE
(This indecision got me climbing up the walls...)
Just play this over until the main verse ends
e|--0-0-0-0-0--7-7-7--7-7--3-3-3-3-3--3-3-3-3-3------|
B|--3-3-3-3-3--7-7-7-10-7--6-6-6-5-6--6-6-6-5-6------|
G|--2-2-2-2-2--9-9-9--9-9--5-5-5-5-5--5-5-5-5-5------|
D|---------------------------------------------------|
A|----------------------------------------------0----|
E|---------------------------------------------------|

PRE-CHORUS
(Chow! On our kiss, thought I'd save my breath for you)
Play this part after the verse, I think you play it twice
e|-------------------------------------------------------------------------|
B|-------------------------------------------------------------------------|
G|--11-11-11-9-11-----11-11-11-14-11-----10-10-10-9-10-----10-10-10-9-10---|
D|-------------------------------------------------------------------------|
A|---9--9--9-7--9------9--9--9-12--9------8--8--8-7--8------8--8--8-7--8-0-|
E|-------------------------------------------------------------------------|

[ Tab from: http://www.guitartabs.cc/tabs/f/foo_fighters/rope_tab.html ]
CHORUS
(Give me some rope I'm coming loose, I'm hanging on you)
Play this throughout the chorus until you get to the POST-CHORUS
e|-3--3-3--3-3-3-0--0-0--0-0-0-0--0-0--0-0-0------------------|
B|-3--3-3--3-3-3-3--3-3--3-3-3-0--0-0--0-0-0-2--2-3--3-2-0----|
G|-0--0-0--0-0-0-0--0-0--0-0-0-4--4-4--4-4-4-2--2-2--2-2-2----|
D|-0--0-0--0-0-0-2--2-2--2-2-2-4--4-4--4-4-4-2--2-2--2-2-2----|
A|-2--2-2--2-2-2-2--2-2--2-2-2-2--2-2--2-2-2-0--0-0--0-0-0----|
E|-3--3-3--3-3-3-0--0-0--0-0-0--------------------------------|

POST-CHORUS
(You, go, I, come, loose...)
This part sounds fairly right.
e|------------------------------------------------------------|
B|------------------------------------------------------------|
G|------------------------------------------------------------|
D|-------------------------------------------8--8-8--8-8-8----|
A|-5--5-5--5-5-5-6--6-6--6-6-6-7--7-7--7-7-7-8--8-8--8-8-8----|
E|-3--3-3--3-3-3-4--4-4--4-4-4-5--5-5--5-5-5-6--6-6--6-6-6----|

FOR THE REST OF THE SONG UNTIL AFTER THE SECOND CHORUS, EVERYTHING YOU NEED IS 
ALREADY WRITTEN UP ABOVE.
AFTER THE SECOND CHORUS, OR MORE LIKE, JUST AFTER THE SECOND POST-CHORUS, THIS PART IS PLAYED:

e|-------------|------------------|
B|-------------|------------------|
G|-------------|------------------|
D|-------7--9--|------------------|
A|-2-0-2-5--7--|-5--5-7--2-2-2----|
E|-2-0-2-5--7--|-3--3-5--0-0-0----|

You play the first part about 4 times, I think, then you 
start playing the second part. This is also played throughout 
the solo, which I haven't tabbed cause I'm not Superman. You 
might want to ask Chris himself how to play it.

THANKS FOR YOUR TIME GUYS :D

Tablature Legend
----------------
 h   - hammer-on
 p   - pull-off
 b   - bend
 pb  - pre-bend
 r   - bend release (if no number after the r, then release immediately)
 /\  - slide into or out of (from/to "nowhere")
 s   - legato slide
 S   - shift slide
  - natural harmonic
[n]  - artificial harmonic
n(n) - tapped harmonic
 ~   - vibrato
 tr  - trill
 T   - tap
 TP  - trem. picking
 PM  - palm muting
\n/  - tremolo bar dip; n = amount to dip
 \n  - tremolo bar down
 n/  - tremolo bar up
/n\  - tremolo bar inverted dip
 =   - hold bend; also acts as connecting device for hammers/pulls
 <>  - volume swell (louder/softer)
 x   - on rhythm slash represents muted slash
 o   - on rhythm slash represents single note slash

Misc Legend
-----------
 |  - bar
||  - double bar
||o - repeat start
o|| - repeat end
*|  - double bar (ending)
 :  - bar (freetime)
 $  - Segno
 &  - Coda
Tempo markers -  = BPM(8/16=s8/s16), where s8 = swing 8ths, s16 = swing 16ths


***************************************************************************************
* Generated using Power Tab Editor by Brad Larsen - http://powertab.guitarnetwork.org *
***************************************************************************************