Foo Fighters - Resolve Chords & Tabs

 

Resolve Chords & Tabs

Foo Fighters Chords & Tabs

Version: 1 Type: Tab 0 ratings
1 star 2 stars 3 stars 4 stars 5 stars
comments

Resolve Tab

                            FOO FIGHTERS
                              RESOLVE


STANDARD TUNING
EADGBe


intro
------------------|
------------------|
------------------|
--5-5-5-5-5-5-----|
--5-5-5-5-5-5-----|
--2-3-2-3-2-3-----|
[ Tab from: http://www.guitartabs.cc/tabs/f/foo_fighters/resolve_tab.html ]
------------------------------------------------------------------|
-----------------------------------------------------------5b-----|
--6-4-2-4----2-4--------2-4-2---4---7-6-4--4/2-4-4---7-6-7----7---|
-----------4-----2--4/5-------5-----------------------------------|
------------------------------------------------------------------|
------------------------------------------------------------------|

----------------|
----------------|
----------------|
--5-5-5-5-5-----|
--5-5-5-5-5-----|
--2-3-2-3-2-----|

thats the lead guitar part
the rest is just background chords
peace
Comments