Foo Fighters - Resolve Chords & Tabs

 

Resolve Chords & Tabs

Foo Fighters Chords & Tabs

Version: 1 Type: Bass Tab 0 ratings
1 star 2 stars 3 stars 4 stars 5 stars
comments

Resolve Bass Tab

Intro
G|-------------------------------------------------------------------------------|
D|-------------------------------------------------------------------------------|
A|------------------------------------------5-55-5-5-55-55-----------------------|
E|--3535353--5555-555-555555-0000-000-00000-----------------3-33-3-3--3535353----|

Verse
G|--------------------------------------------------|
D|--------------------------------------------------|
A|--7--7--7--7--------------5--5--5--5--------------|
E|--------------7--7--7--7--------------5--5--5--5--|

G|---------------------------------------------|
D|---------------------------------------------|
A|--7--7--7--7--------------5--5--5--5---------|
E|--------------7--7--7--7--------------55555--|
[ Tab from: http://www.guitartabs.cc/tabs/f/foo_fighters/resolve_btab.html ]
Chorus x2
G|-------------------------------------------------------------------------------|
D|-------------------------------------------------------------------------------|
A|------------------------------------------5-55-5-5-55-55-----------------------|
E|--3535353--5555-555-555555-0000-000-00000-----------------3-33-3-3--3535353----|

Verse

Chorus x2

Bridge x2
G|------------------------------------------------------------|
D|------------------------------------------------------------|
A|--555-555-555-5-5-------------------------------------------|
E|-------------------7777-777-77777-5555-555-55555-3-3-3-3-3--|

Chorus x2

2nd Bridge x2
G|-------------------------------------------------------------------|
D|-------------------------------------------------------------------|
A|--555-555-555-5-5---------------------------------------------5-5--|
E|-------------------7777-777-77777-5555-555-55555-3-3-3-3-3---3-3-3-|

Chorus

End on
G|-------|
D|-------|
A|-------|
E|---5---|

You should get the hang of it pretty quickly. The chorus and verse might not be spot on
put as long as you stick to those notes, you can pretty much play them as fast as you
want in any pattern. Its up to you. Its a great song to learn and i hope you enjoy it!
Comments