Foo Fighters - Podunk Chords & Tabs

 

Podunk Chords & Tabs

Foo Fighters Chords & Tabs

Version: 1 Type: Tab 0 ratings
1 star 2 stars 3 stars 4 stars 5 stars
comments

Podunk Tab

   
Foo Fighters - Podunk
(Normal Tuning)

  
e||--------------------------------------------------||
B||--------------------------------------------------||
G||--------------------------------------------------||
D||--4--4--X--4--4--4--X--X--4--4--X--4--4--X--X--X--||
A||--4--4--X--4--4--4--X--X--4--4--X--4--4--X--X--X--||
E||--1--1--X--1--1--1--X--X--1--1--X--1--1--X--X--X--||

[ Tab from: http://www.guitartabs.cc/tabs/f/foo_fighters/podunk_tab.html ]
e||----------------------------------------------------||
B||----------------------------------------------------||
G||----------------------------------------------------||
D||----------------------------------------------------||
A||----------------------------------------------------||
E||-7-7-7-7-7-7-7-7-7--3--5---6-6-6-6-6-6-6-6-6--3--5--||

___________________________
Band-Foo fighters
Song-Podunk
Album-This is a call -single
Tabber-Jay.b (j.c.b)
Comments