Foo Fighters - Over And Out Chords & Tabs

 

Over And Out Chords & Tabs

Foo Fighters Chords & Tabs

Version: 2 Type: Tab 0 ratings
1 star 2 stars 3 stars 4 stars 5 stars
comments

Over And Out Tab

-----------------------------------------------------------------------------
			 Over and Out - Foo Fighters
-----------------------------------------------------------------------------
Tabbed by:WickedStellar77	
Email:wickedstellar77@aol.com

This is my first tab, but I think it's pretty close. I actually believe that
there are 2 guitars playing together on this, but I felt it was more beneficial
to learn it as one. If you have any comments or anything to add please email me. 

Tuning:Standard

Intro and Verse
e|-----------------------------------------------------------------------|
B|-----------------------------------------------------------------------|
G|---------0---0---0-------------------------0---0---0-------------------|
D|----------------------\5---4---2p0----------------------\5---4---------|
A|----2----------2----0----0---0--------2----------2----0----0----0------|
E|--0---0-----------------------------0---0------------------------------|
[ Tab from: http://www.guitartabs.cc/tabs/f/foo_fighters/over_and_out_tab_ver_2.html ]
e|------------------------------------------------------------------------| 
B|------------------------------------------------------------------------|
G|-----2p0----------------------0---0---0-----------------0---------------|
D|-2p0-----2p0-------------------------------\5---4---2p0------0----0-----|
A|---------------------2--------------2----0----0---0--------2----0-------|
E|-------------------0---0---------------------------------3----2---------|

Pre-chorus                     3X
e|-------------------------------|----------------------------------|
B|-------------------------------|----------------------------------|
G|---------0---0---0-------------|----------------------------------|
D|-----------------------0-----0-|--2-2-2-2-2-2-2-2-2-2-2-2-2-2-2-2-|
A|----2----------2-----2-----0---|--2-2-2-2-2-2-2-2-2-2-2-2-2-2-2-2-|  
E|--0---0------------3-----2-----|--0-0-0-0-0-0-0-0-0-0-0-0-0-0-0-0-|

Chorus          2X               2X Its not too hard to figure out the 
e|-0--0-0-0--0-0-0----2-2-2-2-2-2-2--------------------|strum pattern
B|-2--2-2-2--2-2-2----2-2-2-2-2-2-2--------------------|
G|-2--2-2-2--2-2-2----0-0-0-0-0-0-0--------------------|
D|-2--2-2-2--2-2-2----0-0-0-0-0-0-0-------0-----0------|Back to beginning
A|-0--0-0-0--0-0-0----2-2-2-2-2-2-2-----2-----0--------|
E|--------------------3-3-3-3-3-3-3---3-----2----------|

After 2nd Chorus When he sings "..Over and Out.."
e|--------------0-0-0-0-0-0-------|
B|--------------2-2-2-2-2-2-------|Played several times  
G|--------------2-2-2-2-2-2-------|then back to chorus
D|-2-2-2-2-2-2--2-2-2-2-2-2-------|
A|-2-2-2-2-2-2--0-0-0-0-0-0-------|
E|-0-0-0-0-0-0--------------------|

I think you can figure out how the rest goes. If you have any ideas on tabbing
the 2 guitars together, feel free to email me. Thanks.
Comments