Foo Fighters - Over And Out Chords & Tabs

 

Over And Out Chords & Tabs

Foo Fighters Chords & Tabs

Version: 1 Type: Tab 0 ratings
1 star 2 stars 3 stars 4 stars 5 stars
comments

Over And Out Tab

   
e|-----------------------------------------| #verse part 1
b|-----------------------------------------|
g|--------0--------------------------------|
d|----------0--------4/5----4----2p0-----0-|
a|---2--------2p0--0------0---0-------0----|
e|-0---0-----------------------------------|

e|-----------------------------------------| #verse part 2
b|-----------------------------------------|
g|--------0-------------------------2p0----|
d|----------0--------4/5----4----2p0---2p0-|
a|---2--------2p0--0------0---0------------|
e|-0---0-----------------------------------|


e|--------------| #interlude 1
b|--------------|
g|--------------|
d|-----0-----0--|
a|---2-----0----|
e|-3-----2------|

e|--------------------------------| #interlude #2
b|--------------------------------|
g|-----------------------0--------|
d|-----0-----0-------------0------|
a|---2-----0------2----------2p0--|
e|-3-----2------0---0-------------|
[ Tab from: http://www.guitartabs.cc/tabs/f/foo_fighters/over_and_out_tab.html ]
e|-------------------| #pre-chorus
b|-------------------|
g|-0-0-0-0-0-0-0-0-0-|
d|-2-2-2-2-2-2-2-2-2-|
a|-2-2-2-2-2-2-2-2-2-|
e|-0-0-0-0-0-0-0-0-0-|


e|-0-0-0-0-0-0-0-0--0-0-0-0-0-0-0-0-| #chorus
b|-0-0-0-0-0-0-0-0--0-0-0-0-0-0-0-0-|
g|-6-6-6-6-6-6-6-6--4-4-4-4-4-4-4-4-|
d|-7-7-7-7-7-7-7-7--5-5-5-5-5-5-5-5-|
a|-7-7-7-7-7-7-7-7--5-5-5-5-5-5-5-5-|
e|-5-5-5-5-5-5-5-5--3-3-3-3-3-3-3-3-|


it's an easy song but really beautiful, here's everything u'll need to play it
enjoy ;)

e|-0-0-0-0-0-0-0-0-| #half chorus
b|-0-0-0-0-0-0-0-0-|
g|-6-6-6-6-6-6-6-6-|
d|-7-7-7-7-7-7-7-7-|
a|-7-7-7-7-7-7-7-7-|
e|-5-5-5-5-5-5-5-5-|

e|-0-0-0-0-0-0-0-0--0-0-0-0-0-0-0-0-| #outro
b|-0-0-0-0-0-0-0-0--0-0-0-0-0-0-0-0-|
g|-0-0-0-0-0-0-0-0--6-6-6-6-6-6-6-6-|
d|-2-2-2-2-2-2-2-2--7-7-7-7-7-7-7-7-|
a|-2-2-2-2-2-2-2-2--7-7-7-7-7-7-7-7-|
e|-0-0-0-0-0-0-0-0--5-5-5-5-5-5-5-5-|

e|-0-0-0-0--0-0-0-0--0-| #outro 2
b|-0-0-0-0--0-0-0-0--0-|
g|-4-4-4-4--4-4-4-4--0-|
d|-5-5-5-5--4-4-4-4--2-|
a|-5-5-5-5--4-4-4-4--2-|
e|-3-3-3-3--2-2-2-2--0-|

/   slide
p   pull
Comments