Foo Fighters - No Way Back Chords & Tabs

 

No Way Back Chords & Tabs

Foo Fighters Chords & Tabs

Version: 3 Type: Tab 0 ratings
1 star 2 stars 3 stars 4 stars 5 stars
comments

No Way Back Tab

   
                           No Way Back tab by Foo Fighters                   

Tabbed By: Alex Miller on June 28th, 2005
E-Mail Address: Ram13093@aol.com

Tuning: Standard

Intro:
e|-2----------------------------|
B|-3----------------------------|
G|-2-1--------------------------| Play a few times.
D|---2---------9----------9-----|
A|---2----9h11---11--9h11---11--|
E|------------------------------|

Verse:
e|---------------------|
B|---------------------|
G|-8-9-8-6-8-9-11-13---|
D|-x-x-x-x-x-x-x--x----| Steadily strum an A chord under this.
A|-6-7-6-4-6-7-9--11---|
E|---------------------|

Chorus:
e|-2-------|
B|-3-2-----|
G|-2-2-1-4-| Play Twice
D|---2-2-4-|
A|-----2-2-|
E|---------|

Then play an A chord once.

Then go to this:
e|-------2----|
B|-------3----|
G|-------2-1--|
D|-5-5-2---2--|
A|-5-5-2---2--|
E|-3-2-0------|
[ Tab from: http://www.guitartabs.cc/tabs/f/foo_fighters/no_way_back_tab_ver_3.html ]
Solo:
e|-----------------------------------------------------------|
B|-----------------------------------------------------------|
G|-----------------------------------------------------------|
D|-----------------------------------------------------------|
A|-6p0-7p0-9p0-11p0-9p0-7p0-6/4-6p0-7p0-9p0-11p0-9p0-7p0-6/4-|
E|-----------------------------------------------------------|

e|----------------------------------------------|
B|----------------------------------------------|
G|-8-8-8-8-9-9-9-9-11-11-11-11-13-13-13-13-19b--|
D|-x-x-x-x-x-x-x-x-x--x--x--x--x--x--x--x--x----|
A|-6-6-6-6-7-7-7-7-9--9--9--9--11-11-11-11-17b--|
E|----------------------------------------------|

Steadily strum an A chord under the solo.

Song Order:
Intro
Verse
Chorus
Verse
Chorus
Intro
Solo
Chorus
Intro

Symbols Used:
x=mute note
/=slide
h=hammer on


Well, that's it. Enjoy.
Comments