Foo Fighters - No Way Back Chords & Tabs

 

No Way Back Chords & Tabs

Foo Fighters Chords & Tabs

Version: 1 Type: Tab 0 ratings
1 star 2 stars 3 stars 4 stars 5 stars
comments

No Way Back Tab

#----------------------------------PLEASE NOTE---------------------------------#
#This file is the author's own work and represents their interpretation of the #
#song. You may only use this file for private study, scholarship, or research. #
#------------------------------------------------------------------------------#

Foo Fighters
"No Way Back"
Album: In Your Honour

I consider myself extremely lucky to have pre-ordered this album much to the annoyance
of my girlfriend (who loves the Foos!)
It definately lives up to all expectations! 

Well, it took me long enough but here we go, one of my favourite tracks from the album;
No Way Back

-Mort (11/06/05)

Time Sig: 4 4
Tuning: Normal EADGBe

Notes: Pay attention to the strumming paterns.  Listen to the CD for the timing if you 
       are unsure.

Main Riff

e|------------------------------|
B|------------------------------|
G|------------------------------|
D|-------9------------9---------|
A|--9h11---11-11-9h11---9-11-11-|
E|------------------------------| 
[ Tab from: http://www.guitartabs.cc/tabs/f/foo_fighters/no_way_back_tab.html ]
Verse-Pay attention to the time signiture here.
      Also watch out for the strumming pattern
e|----------|----------|----------|-----------|----------|----------|----------|----------|
B|----------|----------|----------|-----------|----------|----------|----------|----------|
G|--8-/-/-/-|--9-/-/-/-|--8-/-/-/-|--6--/-/-/-|--8-/-/-/-|--9-/-/-/-|-11-/-/-/-|-13-/-/-/-|
D|--X-/-/-/-|--X-/-/-/-|--X-/-/-/-|--X--/-/-/-|--X-/-/-/-|--X-/-/-/-|--X-/-/-/-|--X-/-/-/-|
A|--6-/-/-/-|--7-/-/-/-|--6-/-/-/-|--4--/-/-/-|--6-/-/-/-|--7-/-/-/-|--9-/-/-/-|-11-/-/-/-|
E|----------|----------|----------|-----------|----------|----------|----------|----------|

Chorus

e|----------|----------|----------|---------|----------|---------|----------|----------|
B|----------|----------|----------|---------|----------|---------|----------|----------|
G|--7-/-/-/-|--7-/-/-/-|--2-/-/-/-|-2-/-/-/-|----------|---------|----------|----------|
D|--7-/-/-/-|--7-/-/-/-|--2-/-/-/-|-2-/-/-/-|--2-/-/-/-|-2-/-/-/-|--4-/-/-/-|--4-/-/-/-|
A|--5-/-/-/-|--5-/-/-/-|--0-/-/-/-|-0-/-/-/-|--2-/-/-/-|-2-/-/-/-|--4-/-/-/-|--4-/-/-/-|
E|----------|----------|----------|---------|--0-/-/-/-|-0-/-/-/-|--2-/-/-/-|--2-/-/-/-|
                                                                   #REPEAT ONCE THEN...#
e|----------|---------|----------|
B|----------|---------|----------|
G|----------|---------|----------|
D|--7-/-/-/-|-/-/-/-/-|--/-/-/-/-|
A|--7-/-/-/-|-/-/-/-/-|--/-/-/-/-|
E|--5-/-/-/-|-/-/-/-/-|--/-/-/-/-|


Bridge

e|----------------|
B|----------------|
G|--------------7-|
D|--5---4---2---7-|
A|--5---4---2---5-|
E|--3---2---0-----|

Solo

A-haa...okay... so i got a little bit of it but i am really no good with solos..
see what you can do with this...

e|--------------------|
B|--------------------|
G|--------------------|
D|------------6---4---|
A|--6-6-7-6-9---9---7-|
E|--------------------| Yeh, so not much! lol

And thats it...

Order:

Riff (x6)
Verse
Riff (x2)
Verse
Riff(x2)
Chorus
Bridge
Riff (x2)
Verse
Riff (x2)
Verse
Riff (x2)
Chorus
Bridge
Riff (x2)
Solo
Riff (x2)
Chorus
Bidge
Riff(x6)




any suggestions or comments are welcome at scorpio_mw@hotmail.com

-Mort
Comments