Foo Fighters - No Way Back Chords & Tabs

 

No Way Back Chords & Tabs

Foo Fighters Chords & Tabs

Version: 1 Type: Bass Tab

No Way Back Bass Tab

   
/= slide
r= let that note ring out for a lil bit.
awesome song, i really like the bass slide in it.


intro ...no lyrics
G------------------------------------|
D------------------------------------|   1x
A--------5-----9/24------------------|
E-0-0r----0r-------------------------|

verse pt. 1 ...no lyrics
G------------------------------------|
D------------------------------------|   4x
A----------------5-------------------|
E-0-0-0-0-0-0-0-----0-0-0-0-0-0-0-0--|

verse pt. 2 ...lately, i've been, livin' in my head...
G-------------------------------------|
D-------------------------------------|
A-0-0-0-0-0-0-0-0-0-0-0-0-0-0-0-0-0-0-|
E-------------------------------------|

then go back into verse pt. 1, then back into verse pt. 2, then back into verse pt. 1, 
into the chorus...
[ Tab from: http://www.guitartabs.cc/tabs/f/foo_fighters/no_way_back_btab.html ]
chorus (this chorus is a little cluttered, but i had to make it all fit) ...pleased to 
you, take my hand, no way back from here...
G-------------------------------------------------|
D-------------------------------------------------|
A-5555--------------5555--------------0000-----5--|
E-----5555-0000-7777----5555-0000-7777----2-3-0-0-|
                                           ^^^
                                   no way back from here

then go back into verese pt. 1, then into verse pt. 2, then into verse pt. 1, then into 
chorus, then into the bridge

bridge (the same exact thing as the verses, except do verse pt. 1 first, then verse pt. 
you get what i am saying when you listen to the song

then go back into the chorus, and after the chorus- finish out the song with the outro

outro (same thing as the intro)
G--------------------------------------|
D--------------------------------------|
A-------5---9/24-------------5---------|
E-0-0r---0r------0-0-0-0-0-0---0-0-0-0-|

that's it, i only give you the tabs, you have to figure out the timing on your own, comment please