Foo Fighters - Next Year Chords & Tabs

 

Next Year Chords & Tabs

Foo Fighters Chords & Tabs

Version: 4 Type: Tab 0 ratings
1 star 2 stars 3 stars 4 stars 5 stars
comments

Next Year Tab

Foo Fighters, Next Year.
 Tabbed by Mike Maurer, Dancehomer@aol.com.
  
Artist:  Foo Fighters
Song:  Next Year
Album:  There is Nothing Left to Loose
Tab by:  Mike Maurer Dancehomer@aol.com

This is song is basicaly just repeating the same thing, so here are the chords you need to fool with...

Just listen for the rhythm, you can't miss it.

this progression is played through the Verse:
e--3----2----0----3---
B--3----3----3----3---
G--0----0----0----0---
D--0----0----0----0---
A---------------------
E---------------------
[ Tab from: http://www.guitartabs.cc/tabs/f/foo_fighters/next_year_tab_ver_4.html ]
at the last line of each verse, this progression is used:
e--3----2----0----0----0----3----2----3-
B--3----3----3----0----2----3----3----3-
G--0----0----0----0----0----0----0----0-
D--0----0----0----0----0----0----0----0-
A---------------------------------------
E---------------------------------------



the chorus is just switching between:
e--3---2----
B--3---3----
G--0---0----
D--0---0----
A-----------
E-----------


These are just the chords used, listen for the rhythm used on each.
This obviously is very very far from perfect, but it will give you a good idea.  Any suggestions, go for it. 

Dancehomer@aol.com 
:: Ultimate Guitar Archive :: 
http://www.ultimate-guitar.com 

 
Comments