Foo Fighters - Next Year Chords & Tabs

 

Next Year Chords & Tabs

Foo Fighters Chords & Tabs

Version: 3 Type: Bass Tab 0 ratings
1 star 2 stars 3 stars 4 stars 5 stars
comments

Next Year Bass Tab

   
Album: There's Nothing Left To Lose
Song Title: Next Year
Track: 8
Artist: Foo Fighters
Tabber: Bambi


Im not sure about this tab, corrections to: suicidal_bambi_666@hotmail.com


First Verse - Start when drums come in
g|-----------------------------|
d|-----------2-4-5-------------| (x3)
a|-----2-3-5-------3-5/7-5-3-5-|
e|-3-5-------------------------|

g|-----------0-2-0-----------------------|
d|-5-5-5-5-4-------4-5-0-----------------|
a|-----------------------3-3-3-5/7-5-3-5-|
e|---------------------------------------|

g|-----------------------------|
d|-----------2-4-5-------------|
a|-----2-3-5-------3---0-------| 
e|-3-5-------------------------|

g|-4-5-4-2h4p2-----------------|
d|-------------5-4--2-0--------|
a|-----------------------2-----|
e|-------------------------3---|


Chorus
g|-----------------------------------------------------|
d|-------------------------5-5-5/7-7-7-7/9-9-9-9/12-12-| (x2)
a|-3-3-3-3-3-3-5-3-2-0-2-------------------------------|
e|-----------------------3-----------------------------|

g|---------/5-4-2-0-------------------|
d|------------------------------------|
a|-3-3-3-3----------4-4-4-4-4-0-2-4-5-|
e|------------------------------------|


Second Verse
g|-----------------------------|
d|-----------2-4-5-------------|
a|-----2-3-5-------3-5/7-5-3-5-|
e|-3-5-------------------------|

g|-----------0-2-0-----------------------|
d|-5-5-5-5-4-------4-5-0-----------------|
a|-----------------------3-3-3-5/7-5-3-5-|
e|---------------------------------------|

g|-----------------------------|
d|-----------2-4-5-------------|
a|-----2-3-5-------3---0-------| 
e|-3-5-------------------------|

g|-5-5-5-4----7--4-2-0-|
d|---------/9----------|
a|---------------------|
e|---------------------|

g|-----------------------------|
d|-----------2-4-5-------------|
a|-----2-3-5-------3-5/7-5-3-5-|
e|-3-5-------------------------|

g|-----------0-2-0-----------------------|
d|-5-5-5-5-4-------4-5-0-----------------|
a|-------------------------3-2-2-2-0h2p0-|
e|---------------------------------------|

g|---------------------------------|
d|---------------------------------|
a|-3-3-3-3-3-5-5-5-5-5-10-10-10-10-|
e|---------------------------------|

[ Tab from: http://www.guitartabs.cc/tabs/f/foo_fighters/next_year_btab_ver_3.html ]
Second Chorus
g|-----------------------------------------------|
d|-------------------5-5-5/7-7-7-7/9-9-9-9/12-12-| (x2)
a|-3-3-3-3-3-3-2-3-------------------------------|
e|-----------------3-----------------------------|

g|---------/5-4-2-0-------------------|
d|------------------------------------|
a|-3-3-3-3----------4-4-4-4-4-0-2-4-5-|
e|------------------------------------|


Third Verse
g|-----------------------------|
d|-----------2-4-5-------------|
a|-----2-3-5-------3-5/7-5-3-5-|
e|-3-5-------------------------|

g|-----------------------------|
d|-----------2-4-5-------------| (x2)
a|-----2-3-5-------3---0-------| 
e|-3-5-------------------------|

g|---------------------------------|
d|---------------------------------|
a|-3-3-3-3-3-5-5-5-5-5-10-10-10-10-|
e|---------------------------------|

g|-----------------------------|
d|-----------2-4-5-------------|
a|-----2-3-5-------3-5/7-5-3-5-|
e|-3-5-------------------------|

g|-----------------------------|
d|-----------2-4-5-------------|
a|-----2-3-5-------3---0-------| (x2)
e|-3-5-------------------------|

g|---------------------------------|
d|---------------------------------|
a|-3-3-3-3-3-5-5-5-5-5-10-10-10-10-|
e|---------------------------------|


Bridge
g|-----------|
d|-0---------| (x2)
a|---4-2-----|
e|-------3-5-|

g|-----------------------|
d|-----------------------|
a|-3-3-3-3-3-3-3-3-3-3-3-|
e|-----------------------|

g|-----------|
d|-0---------| (x2)
a|---4-2-----|
e|-------3-5-|

g|-----------------------------------|
d|-----------------------------------|
a|-3-3-3-3-3-3-3-10-10-9-9-9-9-9-9-9-|
e|-----------------------------------|


Final Verse
g|-----------------------------|
d|-----------2-4-5-------------|
a|-----2-3-5-------3-5/7-5-3-5-|
e|-3-5-------------------------|

g|-----------------------------|
d|-----------2-4-5-------------| (x2)
a|-----2-3-5-------3---0-------|
e|-3-5-------------------------|

g|--------------------------------------|
d|--------------------------------------|
a|-3-3-3-3-3-5-5-5-5-5-10-10-10-0-0-0-0-|
e|--------------------------------------|

g|--------------------------------------|
d|--------------------------------------|
a|-3-3-3-3-3-5-5-5-5-5-10-10-10-0-0-0-0-|
e|--------------------------------------|

g|------------------------|
d|------------------------|
a|-3-3-3-3-3-5-5-5-5-5-10-|
e|------------------------|


Outro
g|-----------------|
d|-----------2-4-5-|
a|-----2-3-5-------|
e|-3-5-------------|
Comments