Foo Fighters - Next Year Chords & Tabs

 

Next Year Chords & Tabs

Foo Fighters Chords & Tabs

Version: 1 Type: Bass Tab 0 ratings
1 star 2 stars 3 stars 4 stars 5 stars
comments

Next Year Bass Tab

Next Year 
Foo Fighters 
Nothing left to lose 
Standard Tuning 
Tacet 

Main Verse 
G|----------------------------| 
D|-------0-2-3-5--------------| 
A|--0-2-3--------3—5h7-5-3h5-| 
E|-3--------------------------| 

G|-----------------:-------------:-------------| 
D|-----------------:----5--------:-------------| 
A|-----------------:-5-7-7-6-7-5-:-3-5h7-5-3h5-| 
E|-3-3-3-3-3-3-3-3-:-------------:-------------| 

:-: is a variation, played really quickly, so its hard to tab.  Play what feels right. 
[ Tab from: http://www.guitartabs.cc/tabs/f/foo_fighters/next_year_btab.html ]
Lead into Chorus 
G|-----------------------| 
D|-------0-2-3-5---------| 
A|--0-2-3--------3-------| 
E|-3---------------5-----| 
Next 
G|---------------------|           |----------------------------------| 
D|-3h5-3-2-0-----------| and/or    |----------------------------------| 
A|----------3h5-3-2-0--|          |-3-3-3-3-3-5-5-5-5-5-5------------| 
E|-------------------3-|          |----------------------3-3-3-3-3-3-| 
(Nate uses above riff with the 2nd riff.  Use whichever you want.  1st riff had variations.) 

Chorus 
G|---------------------------------| 
D|----------2h3—5-5/7-7/9-9/12-12-| 
A|-3-3-3-3h5-----------------------| 
E|---------------------------------| 

G|--------------------------------| 
D|--------------5-5/7-7/9-9/12-12-| 
A|-3-3-3-3------------------------| 
E|---------5-3--------------------| 

G|--------------------------------| 
D|--------3h5r3-------------------| 
A|-3-3-3-3-----5-3-3-3-3-3-2—3-5-| 
E|---------------------------3----| 

Bridge 
G|-------------| 
D|-------------| 
A|-5-3-2—-0-0--| X2 than a bar of C’s 
E|-------3-----| (I think there is a climb after repeating the bridge twice.) 

After the break, to the end 

G|---------------| 
D|-------0-2-3-5-| 
A|--0-2-3--------| 
E|-3-------------| 

Clone159@hotmail.com 


Comments