Foo Fighters - My Hero Chords & Tabs

 

My Hero Chords & Tabs

Foo Fighters Chords & Tabs

Version: 8 Type: Tab 0 ratings
1 star 2 stars 3 stars 4 stars 5 stars
comments

My Hero Tab

rtist: Foo Fighters
Song: My Hero
Tabed by: BlinkSG(Justin Huling)
E-Mail: blinksg@atlantic.net

This song has two guitars in it. Of course, some people cant hear it so
here is the real version. This is correct as i can here so here goes...


This is the intro part and is also used throughout the song.
|--0-0-0-0---------------------|
|--4-5-4-0---------------------|
|--------4---------------------|
|------------------------------|
|------------------------------|
|------------------------------|


Little fill thing and pre-verse
|-------------------------------|
|-------------------------------|
|-------------------------------|
|-4-2----------2----------------|
|-4-4--4--2----2----------------|
|-2-2-------4--0----------------|

[ Tab from: http://www.guitartabs.cc/tabs/f/foo_fighters/my_hero_tab_ver_8.html ]
Verse: Guitar 1 (Dave Grohl)
|------------------------------|
|------------------------------|
|-111111---666666666-----------|
|-222222---666666666-----------|
|-222222---444444444-----------|
|------------------------------|


Guitar 2(Forgot his name) 
|--------------------2-------4---------|
|-/5-5-5-5-5-5---4-4---4-4-4---4-4-4---|
|--------------------------------------|
|--------------------------------------|
|--------------------------------------|
|--------------------------------------|

These are the basic chords for the chorus. Figure out the strumming.
|----------------------------------------------------------------------|
|----------------------------------------------------------------------|
|---------8--9--11--------8--9--4-------8--9--11------ 11- 13--8-------|
|---7-----x--x--x-----7---x--x--x----7--x--x--x-----2--x----x--x-------|
|---7-----6--7--9-----7---6--7--2----7--6--7--9-----2--9---11--6-------|
|---5-----------------5--------------5--------------0------------------|

This is all the basic parts of the song. Questions or comments e-mail me.
Comments