Foo Fighters - My Hero Chords & Tabs

 

My Hero Chords & Tabs

Foo Fighters Chords & Tabs

Version: 6 Type: Tab 0 ratings
1 star 2 stars 3 stars 4 stars 5 stars
comments

My Hero Tab

------------------------------------------------------------
			     My Hero- Foo Fighters
------------------------------------------------------------

By:Steveo
O.K. i was getting really sick of waiting for a good tab for this song but it 
wasn’t happening. I got fed up and decided to figure it out myself.It sounds 
good playing on either the acoustic or electric. This has to be correct!

Riff 1 with Bass

e|---0-0-0-0---0-0-0-0-----------------------|
B|---4-5-4-0---4-5-4-0-----------------------|
G|---------4---------4-----------------------|
D|-------------------------------------------|
A|-------------------------------------------|
E|-------------------------------------------|

Verse:
e|----------------------4-------4-------4---|
B|----------------------7-------7-------5---|
G|--1-1-1-1-1-1----6-6--4--6-6--4--6-6--4---|
D|--2-2-2-2-2-2----6-6--6--6-6--6--4-4--6---|
A|--2-2-2-2-2-2----4-4--4--4-4--4--4-4--4---|
E|------------------------------------------|

Riff 2 before lyrics:
e|--------------------------------------------|
B|--------------------------------------------|
G|-----------------------2--------------------|
D|-----4-4---------------2--------------------|
A|-----2-2-----4-2-0-----0--------------------|
E|-----2-2------------------------------------|

Chorus Riff:
e|-------------------------------------------|
B|-------------------------------------------|
G|---------8-8-8-8----9-9-9-9---11-11-11-11--|
D|---7-7-------------------------------------|
A|---7-7---6-6-6-6----7-7-7-7----9--9--9--9--|
E|---5-5-------------------------------------|

e|-------------------------------------------|
B|-------------------------------------------|
G|----------8-8-8-8----9-9-9-9---4-4-4-4-----|
D|---7-7-------------------------------------|
A|---7-7----6-6-6-6----7-7-7-7---2-2-2-2-----|
E|---5-5-------------------------------------|
[ Tab from: http://www.guitartabs.cc/tabs/f/foo_fighters/my_hero_tab_ver_6.html ]
e|-------------------------------------------|
B|-------------------------------------------|
G|---------8-8-8-8----9-9-9-9---11-11-11-11--|
D|---7-7-------------------------------------|
A|---7-7---6-6-6-6----7-7-7-7----9--9--9--9--|
E|---5-5-------------------------------------|

e|----------------------------------------------|
B|----------------------------------------------|
G|--------11-11-11-11----13-13-13-13----8-8-8-8-|
D|---2-2----------------------------------------|
A|---2-2---9--9--9--9----11-11-11-11----6-6-6-6-|
E|---0-0----------------------------------------|
Repeat whole Chorus riff once

Riff 2, then this:
e|---0-0-0-0---------------------------------|
B|---4-5-4-0---------------------------------|
G|---------4b/-------------------------------|
D|-------------------------------------------|
A|-------------------------------------------|
E|-------------------------------------------|
Verse 2, back to chorus
?
After 2nd chorus play riff 2 then preceding riff again. 
e|---0-0-0-0----0-0-0-0-0--------------------|
B|---4-5-4-0----4-5-4-0-0--------------------|
G|---------4----------6/4--------------------|
D|-------------------------------------------|
A|-------------------------------------------|
E|-------------------------------------------|
>Twice

Part before last chorus:
e|-------------------------------------------|
B|-------------------------------------------|
G|--1-1-1-1-1-1------6-6--6-6--6-6--6-6------|
D|--2-2-2-2-2-2------6-6--6-6--6-6--6-6------|
A|--2-2-2-2-2-2------4-4--4-4--4-4--4-4------|
E|-------------------------------------------|

?Chorus, then end with riff 2 and then this:
e|-------------------------------------------|
B|----------4-----5-----4------0-------------|
G|-------------------------------------------|
D|-------------------------------------------|
A|-------------------------------------------|
E|-------------------------------------------|

============================================================
Comments