Foo Fighters - My Hero Chords & Tabs

 

My Hero Chords & Tabs

Foo Fighters Chords & Tabs

Version: 3 Type: Tab 0 ratings
1 star 2 stars 3 stars 4 stars 5 stars
comments

My Hero Tab

   
Song: My Hero
By: Foo Fighters
Album: The Colour and the Shape
Transcribed By: Derrick Barth (http://eyeonrawk.homestead.com/home.html)

Hey, this is a great song, possibly the best song by the Foo Fighters ever,
so here it is plain and simple...

Intro/Riff A
E|----------------------------------------------------------|
B|---5-4h5p4-------------5-4h5p4-------------5-4h5p4--------|
G|-----------4-4-6-6-4-4---------4-4-6-6-4-4---------6b^\---|
D|----------------------------------------------------------|
A|----------------------------------------------------------|
E|----------------------------------------------------------|

Riff B (played twice)
E|-----------------------------------|
B|-----------------------------------|
G|---------------6-6-6-------6-6-6---|
D|---------2-2-2-6-6-6-2-2-2-6-6-6---|
A|---------2-2-2-4-4-4-2-2-2-4-4-4---|
E|---12\---0-0-0-------0-0-0---------|

Riff C (Played at end of intro and end of verses)
E|-----------------|
B|-----------------|
G|-------------2---|
D|-------------2---|
A|-------4-2---0---|
E|---2-2-----4-----|
[ Tab from: http://www.guitartabs.cc/tabs/f/foo_fighters/my_hero_tab_ver_3.html ]
Riff D (Verse)
E|-----0-0-0-0-0-----------------------0-0-0-0-0---------------0-0-0---|
B|---4h5-5-5-5-5-4-4-7-4-4-4-7-4-4-4-4h5-5-5-5-5-4-4-7-4-4-4-7-5-5-5---|
G|---4-4-4-4-4-4-4-4-4-4-4-4-4-4-4-4-4-4-4-4-4-4-4-4-4-4-4-4-4-4-4-4---|
D|---------------------------------------------------------------------|
A|---------------------------------------------------------------------|
E|---------------------------------------------------------------------|

Chorus
E|-----------------------------------------------------------------------|
B|-----------------------------------------------------------------------|
G|-------8-8-8-8-9-9-9-9-11-11-11-11-------9-9-9-9-11-11-11-11-6-6-6-6---|
D|---7---x-x-x-x-x-x-x-x--x--x--x--x---7---x-x-x-x--x--x--x--x-x-x-x-x---|
A|---7---6-6-6-6-7-7-7-7--9--9--9--9---7---7-7-7-7--9--9--9--9-4-4-4-4---|
E|---5---------------------------------5---------------------------------|
 |                                                                       
E|--------------------------------------------------------------------------|
B|--------------------------------------------------------------------------|
G|-------8-8-8-8-9-9-9-9-11-11-11-11------11-11-11-11-13-13-13-13-6-6-6-6---|
D|---2---x-x-x-x-x-x-x-x--x--x--x--x---2---x--x--x--x--x--x--x--x-x-x-x-x---|
A|---2---6-6-6-6-7-7-7-7--9--9--9--9---2---9--9--9--9-11-11-11-11-4-4-4-4---|
E|---0---------------------------------0------------------------------------|
 
End on Riff C

Email to Dammit5001@aol.com for corrections and stuff.
-Derrick
Comments