Foo Fighters - My Hero Chords & Tabs

 

My Hero Chords & Tabs

Foo Fighters Chords & Tabs

Version: 11 Type: Tab 0 ratings
1 star 2 stars 3 stars 4 stars 5 stars
comments

My Hero Tab

-------------------------------------------------------------------------------
			     My Hero - Foo Fighters
-------------------------------------------------------------------------------
Tabbed by:Soulguitarist       ok folks, theres lots of ways to play this song, mine is easier!
Email:gbmaniac459@hotmail.com
x= mute note
b= bend note
Tuning:Normal
  
Intro (Guitar 1)           
e|--------------0---0---0-------------|
B|------------0---0---0---0-----------|x6
G|--8-9-8-----------------------------|
D|--------9---------------------------|
A|------------------------------------|
E|------------------------------------|
  (Guitar 2)
e|------------------------------------------------|---------------------------|
B|------------------------------------------------|---------------------------|
G|---------6666-----------------------------------|---------------------------|
D|--2222---6666----x4-----------------------------|---------------------------|
A|--2222---4444-----------------------------------|-----4-2-------------------|
E|--0000------------------------------------------|--22-----4-5---------------|
 
 Verse 1 and 2 (Guitar 1)
e|-------------------------------------------------|
B|-------------------------------------------------|
G|-8-9-9-9-9-9-9-8-8-11-8-8-11-8-8-9---------------|x8
D|-------------------------------------------------|
A|-------------------------------------------------|
E|-------------------------------------------------|
  (Guitar 2)
e|----------------------|
B|----------------------|
G|--------6666----------|x8
D|-2222---6666----------|
A|-2222---4444----------|
E|-0000-----------------|

  Chorus(guitar 1)
e|-----------------------------------------------------------------------------|
B|-----------------------------------------------------------------------------|
G|--------888-999-111111--------888-999-666--------888-999-11-11-11------------|
D|--777---xxx-xxx-x-x-x---777---xxx-xxx-xxx---222--xxx-xxx-x--x--x-------------|
A|--777---666-777-9-9-9---777---666-777-444---222--666-777-9--9--9-------------|
E|--555-------------------555-----------------000------------------------------|

e|-----------------------------------|--------------------------------------|
B|-----------------------------------|--------------------------------------|
G|-----111111-13-13-13-888-----------|----------------------8-9-8-----------|
D|-222--x-x-x-x--x--x--xxx-x2--------|----------------------------9b--------|
A|-222--9-9-9-11-11-11-666-----------|------4-2-----------------------------|
E|-000-------------------------------|--2-2-----4-5-------------------------|

  Interlude                            Bridge
e|------------0---0------------------|---------------------------------------|
B|----------0---0---0----------------|---------------------------------------|
G|--8-9-8---------------8-9-8--------|---------------------------------------|x4
D|--------9-------------------9b-x2--|--------6666---------------------------|
A|-----------------------------------|--2222--4444---------------------------|
E|-----------------------------------|--0000---------------------------------|
  Repeat Chorus 4 times. 
  Have fun and I find this a lot easier than most of the other tabs.
[ Tab from: http://www.guitartabs.cc/tabs/f/foo_fighters/my_hero_tab_ver_11.html ]
Comments