Foo Fighters - My Hero Chords & Tabs

 

My Hero Chords & Tabs

Foo Fighters Chords & Tabs

Version: 10 Type: Tab 0 ratings
1 star 2 stars 3 stars 4 stars 5 stars
comments

My Hero Tab

Intro:
e -----------------------------------------------------------------------------
B ----------------------0-0-0-0-0-0-0-0-0-0-0-7-0-0-7-0-0----------------------
G ----8-9-8---8-9-8-----9-9-9-9-9-9-9-9-8-8-8-8-8-8-8-8-8----------------------
D ----------9-------9-------------------(4x)-----------------------------------
A --------------------------------------------------------------4-2------------
E ----------------------------------------------------------2-2-----4-5--------

Verse 1:
  Guitar 1
e -----------------------------------------------------------------------------
B --0-0-0-0-0-0-0-0-0-0-0-7-0-0-7-0-0------------------------------------------
G --9-9-9-9-9-9-9-9-8-8-8-8-8-8-8-8-8------------------------------------------
D ------------(8x)-------------------------------------------------------------
A -----------------------------------------------------------------------------
E -----------------------------------------------------------------------------

   Guitar 2
e -----------------------------------------------------------------------------
B -----------------------------------------------------------------------------
G --1-1-1-1-1-1-1-1-1-1-1-1-1-1--4-4-4-4-4-4-4-4-4-4-4-4-4-4-------------------
D --2-2-2-2-2-2-2-2-2-2-2-2-2-2--6-6-6-6-6-6-6-6-6-6-6-6-6-6-------------------
A --2-2-2-2-2-2-2-2-2-2-2-2-2-2--4-4-4-4-4-4-4-4-4-4-4-4-4-4-------------------
E -----------------------------(4x)--------------------------------------------

Chorus:
e -----------------------------------------------------------------------------
B -----------------------------------------------------------------------------
G ----8-8-8-8-9-9-9-9-11-11-11-11------8-8-8-8-9-9-9-9-11-11-11-11-------------
D -7--x-x-x-x-x-x-x-x--x--x--x--x---7--x-x-x-x-x-x-x-x--x--x--x--x-------------
A -7--6-6-6-6-7-7-7-7--9--9--9--9---7--6-6-6-6-7-7-7-7--9--9--9--9-------------
E -5--------------------------------5------------------------------------------
      (There   goes     my        hero, watch  him       as he

e -----------------------------------------------------------------------------
B -----------------------------------------------------------------------------
G ----8-8-8-8-9-9-9-9-11-11-11-11-----11-11-11-11-13-13-13-13-8-8-8-8----------
D -2--x-x-x-x-x-x-x-x--x--x--x--x---2--x--x--x--x--x--x--x--x-x-x-x-x----------
A -0--6-6-6-6-7-7-7-7--9--9--9--9---0--9--9--9--9-11-11-11-11-6-6-6-6----------
E -0--------------------------------0------------------------------------------
  goes.)
[ Tab from: http://www.guitartabs.cc/tabs/f/foo_fighters/my_hero_tab_ver_10.html ]
e -----------------------------------------------------------------------------
B -----------------------------------------------------------------------------
G ----8-8-8-8-9-9-9-9-11-11-11-11------8-8-8-8-9-9-9-9-11-11-11-11-------------
D -7--x-x-x-x-x-x-x-x--x--x--x--x---7--x-x-x-x-x-x-x-x--x--x--x--x-------------
A -7--6-6-6-6-7-7-7-7--9--9--9--9---7--6-6-6-6-7-7-7-7--9--9--9--9-------------
E -5--------------------------------5------------------------------------------
      (There   goes     my        hero,        he's     ordinary.)

e -----------------------------------------------------------------------------
B -----------------------------------------------------------------------------
G ----8-8-8-8-9-9-9-9-11-11-11-11-----11-11-11-11-13-13-13-13-8-8-8-8----------
D -2--x-x-x-x-x-x-x-x--x--x--x--x---2--x--x--x--x--x--x--x--x-x-x-x-x----------
A -0--6-6-6-6-7-7-7-7--9--9--9--9---0--9--9--9--9-11-11-11-11-6-6-6-6----------
E -0--------------------------------0------------------------------------------

e -----------------------------------------------------------------------------
B -----------------------------------------------------------------------------
G -----------------8-9-8-------------------------------------------------------
D -----------------------9b----------------------------------------------------
A -----4-2---------------------------------------------------------------------
E -2-2-----4-5-----------------------------------------------------------------

Verse 2:
   Guitar 1
e -----------------------------------------------------------------------------
B --0-0-0-0-0-0-0-0-0-0-0-7-0-0-7-0-0------------------------------------------
G --9-9-9-9-9-9-9-9-8-8-8-8-8-8-8-8-8------------------------------------------
D ------------(8x)-------------------------------------------------------------
A -----------------------------------------------------------------------------
E -----------------------------------------------------------------------------

   Guitar 2
e -----------------------------------------------------------------------------
B -----------------------------------------------------------------------------
G --1-1-1-1-1-1-1-1-1-1-1-1-1-1--4-4-4-4-4-4-4-4-4-4-4-4-4-4-------------------
D --2-2-2-2-2-2-2-2-2-2-2-2-2-2--6-6-6-6-6-6-6-6-6-6-6-6-6-6-------------------
A --2-2-2-2-2-2-2-2-2-2-2-2-2-2--4-4-4-4-4-4-4-4-4-4-4-4-4-4-------------------
E -----------------------------(4x)--------------------------------------------

Chorus

Bridge
e -----------------------------------------------------------------------------
B -----------------------------------------------------------------------------
G ---8-9-8-------8-9-8------8-9-8-----999999999999999999999999-----------------
D ---------9b----------9----------9b-------------------------------------------
A -----------------------------------------------------------------------------
E -----------------------------------------------------------------------------

e -----------------------------------------------------------------------------
B -----------------------------------------------------------------------------
G --1-1-1-1-1-1-1-1--4-4-4-4-4-4-4-4--1-1-1-1-1-1-1-1--4-4-4-4-4-4-4-4---------
D --2-2-2-2-2-2-2-2--6-6-6-6-6-6-6-6--2-2-2-2-2-2-2-2--6-6-6-6-6-6-6-6---------
A --2-2-2-2-2-2-2-2--4-4-4-4-4-4-4-4--2-2-2-2-2-2-2-2--4-4-4-4-4-4-4-4---------
E -----------------------------------------------------------------------------
   (Kudos my hero     leavin all....   you know my...   the one that's on...)

Chorus (2x)
Comments