Foo Fighters - Monkey Wrench Chords & Tabs

 

Monkey Wrench Chords & Tabs

Foo Fighters Chords & Tabs

Version: 8 Type: Tab 0 ratings
1 star 2 stars 3 stars 4 stars 5 stars
comments

Monkey Wrench Tab

Foo Fighters
Monkey Wrench

Intro:
e|---------------------------------------------------------------------|
B|---7-7-5-5-4-4-2-2-5-5-4-4-2-2-0-0-2-2-0-0-----0-0-2-2-0-0-2-3-2-0---|
G|-------------------------------------------1-1-----------------------|
D|---------------------------------------------------------------------|
A|---------------------------------------------------------------------|
E|---------------------------------------------------------------------|
  repeat 2x

Wait 1 measure...

Verse 1:
  'What have we done with.....'
e|---------------------------------------------------------------------|
B|---------------------------------------------------------------------|
G|---4-4-4-4-4-4-4-4-4-4-4-4-4-4-4-4-----------------------------------|
D|---4-4-4-4-4-4-4-4-4-4-4-4-4-4-4-4-2-2-2-2-2-2-2-2-2-2-2-0-2-0-2-----|
A|---2-2-2-2-2-2-2-2-2-2-2-2-2-2-2-2-2-2-2-2-2-2-2-2-2-2-2-------------|
E|---------------------------------------------------------------------|
  repeat 4x

Bridge part before Chorus:
  'One in ten, One in ten....'
e|---------------------------------------------------------------------|
B|---------------------------------------------------------------------|
G|---1-----------------------------------------------------------------|
D|---2------0-2-2-0-2-0-2-0--------------------------------------------|
A|---2-----------------------------------------------------------------|
E|---------------------------------------------------------------------|
  repeat 3x

Chorus:
  'Don't want to be your...'
e|---------------------------------------------------------------------|
B|---------------------------------------------------------------------|
G|---4--4--4-----------------------------------------------------------|
D|---4--4--4----6---6----4-------4-----4-------------------------------|
A|---2--2--2----6---6----4-------4-----4---3---------------------------|
E|--------------4---4----2-0-0---2-0-0-2-0-----------------------------|
  repeat 4x

  (Intro)
e|---------------------------------------------------------------------|
B|---7-7-5-5-4-4-2-2-5-5-4-4-2-2-0-0-2-2-0-0-----0-0-2-2-0-0-2-3-2-0---|
G|-------------------------------------------1-1-----------------------|
D|---------------------------------------------------------------------|
A|---------------------------------------------------------------------|
E|---------------------------------------------------------------------|
  repeat 2x

Verse 2:
  'All this time to make...'
e|---------------------------------------------------------------------|
B|---------------------------------------------------------------------|
G|---4-4-4-4-4-4-4-4-4-4-4-4-4-4-4-4-----------------------------------|
D|---4-4-4-4-4-4-4-4-4-4-4-4-4-4-4-4-2-2-2-2-2-2-2-2-2-2-2-0-2-0-2-----|
A|---2-2-2-2-2-2-2-2-2-2-2-2-2-2-2-2-2-2-2-2-2-2-2-2-2-2-2-------------|
E|---------------------------------------------------------------------|
  repeat 4x

Bridge part before Chorus:
  'One in ten, One in ten....'
e|---------------------------------------------------------------------|
B|---------------------------------------------------------------------|
G|---1-----------------------------------------------------------------|
D|---2------0-2-2-0-2-0-2-0--------------------------------------------|
A|---2-----------------------------------------------------------------|
E|---------------------------------------------------------------------|
  repeat 3x
[ Tab from: http://www.guitartabs.cc/tabs/f/foo_fighters/monkey_wrench_tab_ver_8.html ]
Chorus:
  'Don't want to be your...'
e|---------------------------------------------------------------------|
B|---------------------------------------------------------------------|
G|---4--4--4-----------------------------------------------------------|
D|---4--4--4----6---6----4-------4-----4-------------------------------|
A|---2--2--2----6---6----4-------4-----4---3---------------------------|
E|--------------4---4----2-0-0---2-0-0-2-0-----------------------------|
  repeat 4x

2nd Bridge

e|--------------------------------------------------------------------|
B|--------------------------------------------------------------------|
G|--------------------------------------------------------------------|
D|------2-0---0------4-------4----------------------------------------|
A|----------2--------4-------4----------------------------------------|
E|---4----------3----2-0-0---2-0-0------------------------------------|
  repeat 3x then do this

e|--------------------------------------------------------------------|
B|--------------------------------------------------------------------|
G|--------------------------------------------------------------------|
D|------2-0---0------4-------4-------4-----4-----4-----4--------------|
A|----------2--------4-------4-------4-----4-----4-----4---3----------|
E|---4----------3----2-0-0---2-0-0---2-0-0-2-0-0-2-0-0-2-0------------|

  'One last thing before I quit....'
e|---------------------------------------------------------------------|
B|---------------------------------------------------------------------|
G|---4-4-4-4-4-4-4-4-4-4-4-4-------------------------------------------|
D|---4-4-4-4-4-4-4-4-4-4-4-4-4-4-4-4-2-2-2-2-2-2-2-2-2-2-2-0-2-0-2-----|
A|---2-2-2-2-2-2-2-2-2-2-2-2-4-4-4-4-2-2-2-2-2-2-2-2-2-2-2-------------|
E|---------------------------2-2-2-2-----------------------------------|
  repeat 4x

Bridge part before Chorus:
  'One in ten, One in ten....'
e|---------------------------------------------------------------------|
B|---------------------------------------------------------------------|
G|---1-----------------------------------------------------------------|
D|---2------0-2-2-0-2-0-2-0--------------------------------------------|
A|---2-----------------------------------------------------------------|
E|---------------------------------------------------------------------|
  repeat 3x

Chorus:
  'Don't want to be your...'
e|---------------------------------------------------------------------|
B|---------------------------------------------------------------------|
G|---4--4--4-----------------------------------------------------------|
D|---4--4--4----6---6----4-------4-----4-------------------------------|
A|---2--2--2----6---6----4-------4-----4---3---------------------------|
E|--------------4---4----2-0-0---2-0-0-2-0-----------------------------|
  repeat 4x
2nd Chorus:
  'Don't want to be your...(Fall in, Fall out)
e|---------------------------------------------------------------------|
B|---------------------------------------------------------------------|
G|---4-4-4-4-4-4-4-4-4-4-4-4-4-4-4-4-----------------------------------|
D|---4-4-4-4-4-4-4-4-4-4-4-4-4-4-4-4-2-2-2-2-2-2-2-2-2-2-2-0-2-0-2-----|
A|---2-2-2-2-2-2-2-2-2-2-2-2-2-2-2-2-2-2-2-2-2-2-2-2-2-2-2-------------|
E|---------------------------------------------------------------------|
  repeat 3x

Outro:
e|---------------------------------------------------------------------|
B|---------------------------------------------------------------------|
G|---4-4-4-4-4-4-4-4-4-4-4-4-4-4-4-4-----------------------------------|
D|---4-4-4-4-4-4-4-4-4-4-4-4-4-4-4-4-4-------4-------4-----4-----4-----|
A|---2-2-2-2-2-2-2-2-2-2-2-2-2-2-2-2-4-------4-------4-----4-----4-----|
E|-----------------------------------2-0-0---2-0-0---2-0-0-2-0-0-2-0-0-|

e|---------------------------------------------------------------------|
B|---------------------------------------------------------------------|
G|-------4-------------------------------------------------------------|
D|-4-----4-------------------------------------------------------------|
A|-4---3-2-------------------------------------------------------------|
E|-2-0-----------------------------------------------------------------|

I hope you will have a lot fun with my tab!
Made by T.Kegel
From Holland
Comments