Foo Fighters - Monkey Wrench Chords & Tabs

 

Monkey Wrench Chords & Tabs

Foo Fighters Chords & Tabs

Version: 7 Type: Tab 0 ratings
1 star 2 stars 3 stars 4 stars 5 stars
comments

Monkey Wrench Tab

ARTIST:FOO FIGHTERS
SONG:MONKEY WRENCH
ALBUM:THE COLOUR AND THE SHAPE
E-MAIL:greenday_rhcp2002@yahoo.co.uk

.=palm mute(pm)
b/=bend upwards  
/=slide downward on fret board


INTRO x2
e|---------------------------------------------------|
B|-7-7-5-5-4-4----5-5-4-4----------------------------|
G|-------------6-6--------6-6-4-4-6-6-4-4----4-4-6-6-|
D|----------------------------------------6-6--------|
A|---------------------------------------------------|
E|---------------------------------------------------|


 ----------------|
 ----------------|
 ----------------|
 --4-4--6b/--6-2-|
 ----------------|
 ----------------|


VERSE x4
|--------------------------------------------------------
|--------------------------------------------------------
|-4---4-4-4-4-4-4-4-4------------------------------------
|-4---4-4-4-4-4-4-4-4--4-4-4-4--2-2-2-2-2-2-2-2-2-2-2-2--
|-2---2-2-2-2-2-2-2-2--4-4-4-4--2-2-2-2-2-2-2-2-2-2-2-2--
|----------------------2-2-2-2--0-0-0-0-0-0-0-0-0-0-0-0--
pm    . . . . . . . .  . . . .  . . . . . . . . . . . .

 ------------|
 ------------|
 ------------|
 -0-2-0-2-0--|
 -0-2-0-2-0--|
 -0-2-0-2-0--|
 
[ Tab from: http://www.guitartabs.cc/tabs/f/foo_fighters/monkey_wrench_tab_ver_7.html ]
 BRIDGE1 x3
|----------------------------|
|----------------------------|
|----------------------------|
|-2-2-2-0-2-2-2-2-0-2-0-2-0--|
|-2-2-2-0-2-2-2-2-0-2-0-2-0--|
|-2-2-2-0-2-2-2-2-0-2-0-2-0--|


CHORUS x4
|-----------------------------------------|
|-----------------------------------------|
|-4-4-4-4------------------------------5--|
|-4-4-4-4--6-6-6-6-6-6--4-2--4-2-4-2---5--|
|-2-2-2-2--6-6-6-6-6-6--4-2--4-2-4-2---3--|
|----------4-4-4-4-4-4--2-0--2-0-2-0------|


.NOW PLAY ALL OF THIS AGAIN.BUT WITH A 2ND GUITAR PLAYS VERSE NOT
 PALM MUTED WITH INTRO THIS TIME x2.


BRIDGE2 x4
|-------------------------------------------|
|-------------------------------------------|
|----9--------------------------------------|
|-6--9-7-5-5-5-5-5-5-4-2-2-2-2-2-2-2-2-2-2--|
|-6--7-7-5-5-5-5-5-5-4-2-2-2-2-2-2-2-2-2-2--|
|-4----7-3-3-3-3-3-3-2-0-0-0-0-0-0-0-0-0-0--|

INTURLUDE x1
|-----------------------|
|-----------------------|
|-----------------------|
|-0-2-0-2-0-2-0-2-0-2/--|
|-0-2-0-2-0-2-0-2-0-2/--|
|-0-2-0-2-0-2-0-2-0-2/--|


NOW PLAY VERSE NOT PALM MUTED x4

BRIDGE1 x3

CHORUS x4

INTRO x4 AND 2ND GUITAR PLAYS VERSE NOT PALM MUTED x4

OUTRO
|-----------------------|
|-----------------------|
|-----------------------|
|-0-2-0-2-0-2-0-2-0-2/--|
|-0-2-0-2-0-2-0-2-0-2/--|
|-0-2-0-2-0-2-0-2-0-2/--|

 THE END.


NOTE:THIS IS ONE OF THE ALL TIME BEST FOO FIGHTER SONGS
IN MY OPINION.ITS GREAT FUN TO PLAY.ANY COMMENTS TO E-MAIL ABOVE
RATE IF YA LIKE.TTU L8R GOODLUCK ENJOY.
Comments