Foo Fighters - Monkey Wrench Chords & Tabs

 

Monkey Wrench Chords & Tabs

Foo Fighters Chords & Tabs

Version: 4 Type: Tab 0 ratings
1 star 2 stars 3 stars 4 stars 5 stars
comments

Monkey Wrench Tab

   
Monkey Wrench- by Foo Fighters

(tabbed by countertiger_x)
This is in regular tuning (E,B,G,D,A,E)
Intro: here in the intro, I suggest that you only use your index finger for sliding.
(slide on all these notes)

e:---------------------------------------------------------
b:---0--0-0-0-0-0-0-0-0-0-0-0-0-0-0-0-0-0-0-0-0-0-0-0-0-0-
g:--11-11-9-9-8-8-6-6-9-9-8-8-6-6-4-4-6-6-4-4-1-1-4-4-6-6-
d:---------------------------------------------------------
a:--------------------------------------------------------
e:---------------------------------------------------------

--------------
--0-0----------
--4-4--6bend---
---------------  2x then wait 5 beats and then you play the
---------------   verses
---------------

Verses:
e:------------------------------------------------
b:------------------------------------------------
g:-4-4-4-4-4-4-4-4-4-4----------------------------
d:-4-4-4-4-4-4-4-4-4-4-4-4-4-4--------------------
A:-2-2-2-2-2-2-2-2-2-2-4-4-4-4-2-2-2-2-2-2-2-2-2-2
e:---------------------2-2-2-2-0-0-0-0-0-0-0-0-0-0

------------------------------------
------------------------------------
--7 slide- 9-slide-7-slide-9-slide7-
--7-slide- 9-slide-7-slide-9-slide7-  }4x
--5-slide- 7-slide-5-slide-7-slide5-
------------------------------------
I think what you have to do is slide back and forth.That's what I do.

( you dont have to slide if you dont want. im just tabbing it. its up to you 
how you play it)
Repeat the whole thing about 4 times.

Pre-chorus:

"One in ten...."
[ Tab from: http://www.guitartabs.cc/tabs/f/foo_fighters/monkey_wrench_tab_ver_4.html ]
e:----------------------------------------------------
b:----------------------------------------------------
g:------------------7-slide-9-slide-7-slide-9-slide-7-
d:------------------7-slide-9-slide-7-slide-9-slide-7-
a:-2-2-2-2-2-2-2-2--5-slide-7-slide-5-slide-7-slide-5-
e:-0-0-0-0-0-0-0-0------------------------------------

You repeat this 3x

Chorus:

"Don't wanna be your monkey wrench.....

e:---------------------------------------------------------
b:---------------------------------------------------------
g:-4-4-4-4-4-4-4-----------------------------------------6-
d:-4-4-4-4-4-4-4-6-6-6-6-6-6-6-4-4-------4-----4-----4---6-
a:-2-2-2-2-2-2-2-6-6-6-6-6-6-6-4-4-2-2---4-2-2-4-2-2-4-2-4-
e:---------------4-4-4-4-4-4-4-2-2-0-0---2-0-0-2-0-0-2-0---

Repeat this about 4 times and then go back to the intro and verses.

Bridge:

e:----------------------------------------------------------
b:----------------------------------------------------------
g:----9--4-----------------------9--4----------------------
d:-6--9--4--5---4-----4-------6--9--4--5---4-----4-------6-
a:-6--7--2--5---4-2-2-4-2-2---6--7--2--5---4-2-2-4-2-2---6-
e:-4--------3---2-0-0-2-0-0---4--------3---2-0-0-2-0-0---4-

-----------------------------------------------------------
-----------------------------------------------------------
--9--4-----------------------9--4--------
--9--4--5---4-----4-------6--9--4--5---4-----4-----4-----4-
--7--2--5---4-2-2-4-2-2---6--7--2--5---4-2-2-4-2-2-4-2-2-4-
--------3---2-0-0-2-0-0---4--------3---2-0-0-2-0-0-2-0-0-2-

---------------------
---------------------
------------------6--
------4-----4-----6--
--2-2-4-2-2-4-2---4--
--0-0-2-0-0-2-0------

Then, for when the guy is starting the rest of the bridge (where he's screaming), 
they just play the part with the verses. Ok, that's all you need to know. hope you 
like my tabs!

TigerX
Comments