Foo Fighters - Monkey Wrench Chords & Tabs

 

Monkey Wrench Chords & Tabs

Foo Fighters Chords & Tabs

Version: 4 Type: Bass Tab 0 ratings
1 star 2 stars 3 stars 4 stars 5 stars
comments

Monkey Wrench Bass Tab

This is a really kol song, and this tab is 100% correct, and don't give up on this song 
because it's a little hard. Enjoy!

Intro x2
G-----------------------------------------------------------------|
D---------------------------4-4-4-4-2-2-2-2-2-2-2-2-2-2-0-2-0-2-0-|
A-2-2-2-2-2-2-2-2-2-2-2-2-2---------------------------------------|
E-----------------------------------------------------------------|

Verse
G-----------------------------------------------------------|
D---------------------4-4-4-4-2-2-2-2-2-2-2-2-2-2-0-2-0-2-0-|
A-2-2-2-2-2-2-2-2-2-2---------------------------------------|
E-----------------------------------------------------------|

Pre-Chorus
G-------------------------------------|
D-------------------------------------|
A-------------------------------------|
E-2--2-2-0-2--2--2-2-0-2--2-0-2-0-2-0-|

Chorus
G---------------------------------------------------------|
D--------------------------------------4-6--6-6-4-6-4-----|
A--------------------------2--2-2--4-6----------------6---|
E-2--2-2-0-2--2--0-2-0-2-0------------------------------4-|
[ Tab from: http://www.guitartabs.cc/tabs/f/foo_fighters/monkey_wrench_btab_ver_4.html ]
Chorus Continued
G-----------------------------------------------|
D-------------------------------------------4---|
A------------------------------3---2-2--4-6---6-|
E-(4)-2-2-2-2-2-2-4--2-2-4---2------------------|

Chorus continued (again)
G----------------------------------------------|
D----------------------------------------------|
A--------------------------------------------3-|
E-(6)-6-6-4-6-4-1-4--2-2-2-2-2-2-4--2-2-4--2---|

Bridge
G--------------------------------------------------------|
D--------------------------------------------------------|
A----7---------------------------------------------------| x2
E-6-----9--5--5-5-5-5-5--4--2-2-2-2-2--4--2-2-2-2-2-2-0--|

Bridge continued
G--------------------------------------------------------|
D--------------------------------------------------------|
A-----7--------------------------------------------------|
E-6-------9---5---5--5--5--5--5--4---2--2--2--2--2--2--4-|

Bridge continued (again...)
G-----------------------------------------------------------|
D-----------------------------------------------------------|
A---------------------------------------------------------3-|
E-(4)-2--2--2--2--2--2--4--2--2--4---2--2--4--2--2--4---2---|

Well that's it. Have fun! Sorry I haven't figured out the outro, but i'm sure someone 
figure it out.
Comments