Foo Fighters - Low Chords & Tabs

 

Low Chords & Tabs

Foo Fighters Chords & Tabs

Version: 7 Type: Tab 0 ratings
1 star 2 stars 3 stars 4 stars 5 stars
comments

Low Tab

   
*******************
FOO FIGHTERS - LOW
*******************

DISCO: ONE BY ONE (2002)

GUITARRA 1 (G1): DAVE GROHL
GUITARRA 2 (G2): CHIRS SHIFFLET

AFINACION: D-A-D-G-B-e 

HECHO POR: JUAN ANGEL DE CAMILLIS
_______________________________________________________________________

INTRO/VERSO: (X6) 

G1
e|-------------------
B|-------------------
G|-------------------
D|-------------------
A|------------------- 
D|-5555555555555-----

G2
e|----------------------------------------------
B|----------------------------------------------
G|--------------------15-15-15-15---17-17-17-17-
D|---------------------------------------------- 
A|--------------------13-13-13-13---15-15-15-15- 
D|-5555555555555--------------------------------

"Hey you..."


G1
e|-------------------
B|-------------------
G|-------------------
D|-------------------
A|------------------- 
D|-4444444444444-----

G2
e|----------------------------------------------
B|----------------------------------------------
G|--------------------15-15-15-15---11-11-11-11-
D|---------------------------------------------- 
A|--------------------13-13-13-13----9--9--9--9- 
D|-4444444444444--------------------------------

"...are you in there?..."
_______________________________________________________________________

PUENTE: (GUITARRAS 1 Y 2 X2)
e|----------------------------------------------------------
B|----------------------------------------------------------
G|----------------------------------------------------------
D|----------------------------------------------------------
A|--------------------------------------------------------4-
D|-55555555--444444444--888888888888--22222222222222--0-2---

"You be my passerby, i'll be your new one to pass through..."
_______________________________________________________________________

INTRO/VERSO X5
_______________________________________________________________________

PUENTE X2
_______________________________________________________________________

ESTRIBILLO: (GUITARRAS 1 Y 2 X4)
e|--------------------
B|--------------------
G|--------------------
D|--1X1X1-/-10X10X10/-
A|--1X1X1-/-10X10X10/-
D|--1X1X1-/-10X10X10/-

"Taking you as low as you go..."
_______________________________________________________________________

INTRO/VERSO X2
_______________________________________________________________________

PUENTE X2
_______________________________________________________________________

SOLO X2
GUITARRA 1 
e|---------------------------------------------------
B|---------------------------------------------------
G|---------------------------------------------------
D|---------------------------------------------------         
A|-----------------------------1-3-4-3-1-3-----------         
D|-5-5-5-5-5-5-5-5-5-5-5-5-5-5-----------------------         
GUITARRA 2                                      
e|---------------------------------------------------       
B|---------------------------------------------------
G|-12-12-12-12-12-12-12-12-12-12-12-12--14-14-14-14--
D|---------------------------------------------------
A|-10-10-10-10-10-10-10-10-10-10-10-10--12-12-12-12--
D|---------------------------------------------------
[ Tab from: http://www.guitartabs.cc/tabs/f/foo_fighters/low_tab_ver_7.html ]
G1 
e|--------------------------------------------------- 
B|---------------------------------------------------         
G|---------------------------------------------------         
D|---------------------------------------------------         
A|-----------------------------1-3-4-3-1-3-----------         
D|-4-4-4-4-4-4-4-4-4-4-4-4-4-4-----------------------         
G2                                       
e|---------------------------------------------------        
B|---------------------------------------------------
G|-15-15-15-15-15-15-15-15-15-15-15-15---------------       
D|---------------------------------------------------     
A|-13-13-13-13-13-13-13-13-13-13-13-13---------------       
D|---------------------------------------------------

G1 
e|--------------------------------------------------- 
B|---------------------------------------------------      
G|---------------------------------------------------
D|---------------------------------------------------
A|-----------------------------1-3-4-3-1-3-----------       
D|-3-3-3-3-3-3-3-3-3-3-3-3-3-3-----------------------      
G2                                        
e|---------------------------------------------------
B|---------------------------------------------------          
G|-14-14-14-14-14-14-14-14--17-17-17-17--------------       
D|---------------------------------------------------      
A|-12-12-12-12-12-12-12-12--15-15-15-15--------------        
D|---------------------------------------------------

G1 
e|---------------------------------------------------
B|---------------------------------------------------   
G|---------------------------------------------------               
D|---------------------------------------------------               
A|----------------------------------4----------------               
D|-2-2-2-2-2-2-2-2-2-2-2-2-2-2--0-2------------------             
G2                                       
e|---------------------------------------------------          
B|---------------------------------------------------         
G|-----15-15--14-14----------------------------------          
D|---------------------------------------------------          
A|-----13-13--12-12----------------------------------          
D|--------------------------------------------------- 

FINAL DEL SOLO X3
e|-------------------------
B|------------------------- 
G|----------------------*5-
D|----------------------*5- 
A|-------------------------
D|-55555555555555555555----
_______________________________________________________________________

ESTRIBILLO X8
_______________________________________________________________________

OUTRO X8 
e|-------------------------
B|------------------------- 
G|----------------------*5-
D|----------------------*5- 
A|-------------------------
D|-55555555555555555555----
*HARMONICO NATURAL

NOTA: Los tiempos no son exactos, pero estoy seguro de que esas son las notas y arcordes y que
asi es el orden, ecucha el tema para saber bien los tiempos. Disculpá si hay algún error.

LETRA:

Hey you
are you in there?
I'm stuck outside you

We could use 
one another
another like you

You be my passerby
I'll be your new one to pass through
screws inside turn so tight
turning on you
I'm hanging on you

Baby blue
don't go nowhere
I'm right beside you

me and you
going nowhere
I'm right beside you

Taking you as low as you go
________________________________________
JUAN DE CAMILLIS
email: jadecam_akd@hotmail.com
¡¡Aguante ARGENTINA y LA ACADÉ Carajo!!
Comments