Foo Fighters - Low Chords & Tabs

 

Low Chords & Tabs

Foo Fighters Chords & Tabs

Version: 6 Type: Tab 0 ratings
1 star 2 stars 3 stars 4 stars 5 stars
comments

Low Tab

Tuning: Dropped D

Intro and Verse (You can just play the D string
if you prefer instead of the chord)

Guitar 1

e  ---------------------------------------------
b  ---------------------------------------------
g  ---------------------------------------------
d  --5-5-5-5-5-5-5-5-5--------------------------
a  --5-5-5-5-5-5-5-5-5--------------------------
D  --5-5-5-5-5-5-5-5-5--------------------------

Guitar 2

e  ---------------------------------------------
b  ---------------------------------------------
g  -------------------15-15-15-15-17-17-17-17---
d  --------------------x--x--x--x--x--x--x--x---
a  -------------------13-13-13-13-15-15-15-15---
D  ---------------------------------------------

e  ---------------------------------------------
b  ---------------------------------------------
g  ---------------------------------------------
d  --4-4-4-4-4-4-4-4-4--------------------------
a  --4-4-4-4-4-4-4-4-4--------------------------
D  --4-4-4-4-4-4-4-4-4--------------------------

e  ---------------------------------------------
b  ---------------------------------------------
g  --------------------15-15-15-15-7-7-7-7------
d  ---------------------x--x--x--x-x-x-x-x------
a  --------------------13-13-13-13-9-9-9-9------
E  ---------------------------------------------

Verse 2

"You'll Be Mine.."

e  ---------------------------------------------
b  ---------------------------------------------
g  ---------------------------------------------
d  ---------------------------------------------
a  ---------------------------------------------
D  --5-5-5-5-5-5-5-5----------------------------

"Passer By.."

e  ---------------------------------------------
b  ---------------------------------------------
g  ---------------------------------------------
d  ---------------------------------------------
a  ---------------------------------------------
D  --4-4-4-4-4-4-4-4----------------------------

"..Your New"

e  ---------------------------------------------
b  ---------------------------------------------
g  ---------------------------------------------
d  ---------------------------------------------
a  ---------------------------------------------
D  --8-8-8-8-8-8-8-8----------------------------
[ Tab from: http://www.guitartabs.cc/tabs/f/foo_fighters/low_tab_ver_6.html ]
"One To Pass Through" 

e  ---------------------------------------------
b  ---------------------------------------------
g  ---------------------------------------------
d  ---------------------------------------------
a  ---------------------------------------------
D  --2-2-2-2-2-2-2-2-2--0-2-0-------------------


Chorus

"Take It Low As You Go.."

e  -------------------------------------------------
b  -------------------------------------------------
g  -------------------------------------------------
d  --1-x-x-x-1-x-x-x-1-1/10-10-x-x-x-10-x-x-x-10\1--
a  --1-x-x-x-1-x-x-x-1-1/10-10-x-x-x-10-x-x-x-10\1--
D  --1-x-x-x-1-x-x-x-1-1/10-10-x-x-x-10-x-x-x-10\1--


Bridge (Chords)

Guitar 1

e  ---------------------------------------------------------------
b  ---------------------------------------------------------------
g  ---------------------------------------------------------------
d  --------------------------------------------------------3------
a  ----------------0-1-2-2/4-3-2-0---------------0-1-2-2/4---4-3--
D  --5--5--5--5--5-----------------4--4--4--4--4------------------

e  -------------------------------------------------------
b  -------------------------------------------------------
g  -------------------------------------------------------
d  -------------------------------------------------------
a  ----------------0-1-2-2/4-3-2-0------------------------
D  --3--3--3--3--3-----------------2--2--2--2--2--0-2-0---

e  ---------------------------------------------
b  ---------------------------------------------
g  --12--14--15--14--10--17--15--14-------------
d  ---x---x---x---x---x---x---x---x-------------
a  --10--12--13--12---8--15--13--12-------------
D  ---------------------------------------------

Outro

slide your finger along the D string and play harmonics 

"Oooooh.."

e  ---------------------------------------------
b  ---------------------------------------------
g  ---------------------------------------------
d  ---------------------------------------------
a  ---------------------------------------------
D  --*5--*4--*3---------------------------------


=^_^=
feel free to talk to me 'bout it ~~>roze_angel@hotmail.com
                                                             -sleepwalker-
Comments