Foo Fighters - Low Chords & Tabs

 

Low Chords & Tabs

Foo Fighters Chords & Tabs

Version: 1 Type: Tab 1 rating
1 star 2 stars 3 stars 4 stars 5 stars
comments

Low Tab

Song Title: low 
Artist: foo fighters
Submitted by: matt garland
email adrress: slipmatt666@aol.com  


im pretty sure this is right it is a great song>>>>enjoy

intro/verses
[ Tab from: http://www.guitartabs.cc/tabs/f/foo_fighters/low_tab.html ]
e|-------------------------------------------------------------------------
B|----------------------------------------------------
G|------------------------------------------------------
D|---5--5--5--5--5--5-/--4--4--4--4--4--4-----------repeat untill pre chorus
A|---5--5- 5--5--5--5-/--4--4--4--4--4--4---------------------------------------
E|---3--3--3--3--3--3-/--2--2--2--2--2--2----------------------------------------

Pre chorus


e|-------------------------------------------------------------------------
B|--------------------------------------------------------------------------
G|-------------------------------------------------------------------------------------
D|---5--5--5--5--5--5-/--4--4--4--4--4--4/--7--7--7--7--7--7/--6--6--6--6--6--6---------------
A|---5--5- 5--5--5--5-/--4--4--4--4--4--4/--7--7--7--7--7--7/--6--6--4--4--4--4--------
E|---3--3--3--3--3--3-/--2--2--2--2--2--2/--5--5--5--5--5--5/--4--4--4--4--4--4---------

this is all i could work out  sorry  i will try to tab the rest some other time 
Comments