Foo Fighters - Lonely As You Chords & Tabs

 

Lonely As You Chords & Tabs

Foo Fighters Chords & Tabs

Version: 5 Type: Tab 0 ratings
1 star 2 stars 3 stars 4 stars 5 stars
comments

Lonely As You Tab

   
lonely as you - foo fighters
tabbed by tom kelly (tuhu27@hotmail.com)
i have really done not much work here at all. i've used note for note the
version of this song already on this site. however i can't be screwed tuning
down a whole step so i play it in dropped D cos its a lot quicker. this is how.
great tab by Mcknicker by the way(thats the original) 
(originaly) By: Mcknicker 
dropped D tuning 

Note: Every dash = 8th note 

3/3 time 
Intro 
e|--------------------------------------------------| 
B|-------2-----------------------------4-----3------| 
G|-3-----3-----1-3-4---------1-3-3-----4-----4------| 
D|-4-----3-----2-----4-----4-----4-----4-----4------| 
A|-4-----1-----2-----1-----0-----4-----2-----2------| 
D|-4-----------2-----1-----0-----4------------------| 
  

4/4 time 
Verse 

Part A 
e|------------------------------------------------------------------| 
B|------------------------------------------------------------------| 
G|------------------------------------------------------------------| 
D|---------33333333-------------------------------------------------| 
A|-4444444411111111222222221111111100000022444444446666666655555555-| 
D|-44444444--------222222221111111100000022444444446666666655555555-| 
   p.m. throughout 

Part B 
e|------------------------------------------------------------------| 
B|------------------------------------------------------------------| 
G|---------------------------------------------------------------44-| 
D|---------33333333--------------------------------4444444444444444-| 
A|-4444444411111111222222221111111100000022444444442222222222222222-| 
D|-44444444--------22222222111111110000002244444444-----------------| 
   p.m. --->           ---/ 

Part C 
e|--------------------------------------------------| 
B|--------------------------------------------------| 
G|--------------------------------------------------| 
D|---------33333333----------------000002-4-xxx4----| 
A|-44444444111111112222222211111111000002-4-xxx4----| 
D|-44444444--------2222222211111111000002-4-xxx4----| 
   p.m. --->         ---/ 

Part D 
e|------------------| 
B|------------------| 
G|------------------| 
D|-000002-4-xxx4----| 
A|-000002-4-xxx4----| 
D|-000002-4-xxx4----| 
  

Pre-Chorus 

Guitar 1 
e|---------------------------------| 
B|---------------------------------| 
G|---------------------------------| 
D|-9-9-9-9-7-7-7-7-6-6-6-6-5-5-5-5-| 
A|-9-9-9-9-7-7-7-7-6-6-6-6-5-3-3-3-| 
D|-9-9-9-9-7-7-7-7-6-6-6-6-5-5-5-5-| 
[ Tab from: http://www.guitartabs.cc/tabs/f/foo_fighters/lonely_as_you_tab_ver_5.html ]
Guitar 2 
e|-------/\------/\------/\--------| 
B|-4-----74------74------74--------| 
G|---------6-------5-------4-------| 
D|---------------------------------| 
A|---------------------------------| 
D|---------------------------------| 
   /\ = slide 

Chorus 
e|----------------------------------| 
B|----------------------------------| 
G|--------------------222---444-----| 
D|-4443332221110---0002222224444----| 
A|-4443332221110---0000002222224----| 
D|-4443332221110---000---222---4----| 
  

Alternate Verse 
e|--------------------------------------------------| 
B|--------------------------------------------------| 
G|---------3-3-3-3----------------------------------| 
D|-4-4-4-4-3-3-3-3-2-2-2-2-1-1-1-1-000002-4-xxx4----| 
A|-4-4-4-4-1-1-1-1-2-2-2-2-1-1-1-1-000002-4-xxx4----| 
D|-4-4-4-4---------2-2-2-2-1-1-1-1-000002-4-xxx4----| 
  

Solo 

Guitar 1 
e|------------------------------------------------------------------| 
B|------------------------------------------------------------------| 
G|-11------10------9-------8-------7----9--6-------8-------7----9---| 
D|------------------------------------------------------------------| 
A|--9-------8------7-------6-------5----7--4-------6-------5----7---| 
D|------------------------------------------------------------------| 

e|------------------------------------------------------------------| 
B|------------------------------------------------------------------| 
G|-11------10------9-------8-------7----9--6-------8-------7--------| 
D|------------------------------------------------------------------| 
A|--9-------8------7-------6-------5----7--4-------6-------5--------| 
D|------------------------------------------------------------------| 
  

Outro 
e|------------------------------------------------------------(8)----| 
B|-7-----7-----7-----7-----7-------7-----7-----7----5---[8]---(10>12)|       
G|-9>11--9>11--9>11--9>11--9>11----9>11--9>11--9>11-7>9-[10>12]------|X2    
D|-------------------------------------------------------------------|    
A|-------------------------------------------------------------------|   
D|-------------------------------------------------------------------| 
first time thru play [] and not (), second time play () instead of []. 




e|-6------6----6-----6-----6------5-----5-----5-----4----7-----[6]---|    
B|-9>11--9>11--9>11--9>11--9>11---8>10--8>10--8>10--7>9--10>12-[9>11]|    
G|-------------------------------------------------------------------|X2 
D|-------------------------------------------------------------------| 
A|-------------------------------------------------------------------| 
D|-------------------------------------------------------------------| 
  don't play [] notes first time thru, just second time to finish. 

  > = bend 

apologies for any mistakes...
Comments