Foo Fighters - Lonely As You Chords & Tabs

 

Lonely As You Chords & Tabs

Foo Fighters Chords & Tabs

Version: 1 Type: Tab 0 ratings
1 star 2 stars 3 stars 4 stars 5 stars
comments

Lonely As You Tab

LONELY AS YOU
FOO FIGHTERS

INTRO
GUITAR 1
E|----------------------------2---|
B|----2--------------------4--3---|
G|-3--3--1-3-4------1-3-3--4--4---|
D|-4--3--------4--4--------4--4---|
A|-1--1--------------------2--2---|
E|--------------------------------|

GUITAR 2
E|----------------------------|
B|----------------------------|
G|----------------------------|
D|-8--8--9-----8--7-----6-----|
A|-9--8--7-----6--5-----4-----|
E|-6--6--7-----6--5-----4-----|

VERSE(PALM MUTE ALL OF THE VERSE)
E|--------------------------------------------------------------------------------------------|
B|--------------------------------------------------------------------------------------------|
G|--------------------------------------------------------------------------------------------|
D|-44444444--88888888--999999-9-11-88888888--777777-999-1111111111111111--66666666--55555555--|
A|-44444444--88888888--777777-7--9-66666666--555555-777--9-9-9-9-9-9-9-9--66666666--55555555--|
E|-22222222--66666666--777777-7--9-66666666--555555-777--9-9-9-9-9-9-9-9--44444444--33333333--|

E|--------------------------------------------------------------------------------------------|
B|--------------------------------------------------------------------------------------------|
G|--------------------------------------------------------------------------------------------|
D|-44444444--88888888--999999-9-11-88888888--777777-999-1111111111111111--99999999999999-9/---|
A|-44444444--88888888--777777-7--9-66666666--555555-777--9-9-9-9-9-9-9-9--99999999999999-9/---|
E|-22222222--66666666--777777-7--9-66666666--555555-777--9-9-9-9-9-9-9-9--77777777777777-7/---|

PRE CHORUS
E|----------------------|
B|----------------------|
G|----------------------|
D|-7777/9-11-------11/--|
A|-5555/7--9-(999)--9/--|
E|-5555/7--9-(999)--9/--|
(DO HARMONICS)
[ Tab from: http://www.guitartabs.cc/tabs/f/foo_fighters/lonely_as_you_tab.html ]
GUITAR 1
E|-------------------------------------------------|
B|-------------------------------------------------|
G|-------------------------------------------------|
D|-999999-9/-11--777777-7/9--666666-6/7--55555555--|
A|-999999-9/-11--777777-7/9--666666-6/7--55555555--|
E|-777777-7/--9--555555-5/7--444444-4/5--33333333--|

GUITAR 2
E|----------------------------------|
B|----------------------------------|
G|-8--8/11/8-6--8/11/8-5--8/11/8-4--|
D|----------------------------------|
A|----------------------------------|
E|----------------------------------|

E|-------------------------|
B|-------------------------|
G|-------------------------|
D|111111-101010-999-888-7--|
A|-9-9-9--8-8-8-777-666-5--|
E|-9-9-9--8-8-8-777-666-5--|

E|--------------------------|
B|--------------------------|
G|--------------------------|
D|-777--777--999--999-9/12--|
A|-555--777--777--999-9/10--|
E|-555--555--777--777-7/10--|

E|----------------------------------------------------------------------------------|
B|----------------------------------------------------------------------------------|
G|11111111-10101010--9-9-9-9-9/11--8-8-8-8--7-7-7-7/9-6-6-6-6--8-8-8-8-8-8-7-7-9-9--|
D|-x-x-x-x--x-x-x-x--x-x-x-x-x--x--x-x-x-x--x-x-x-x-x-x-x-x-x--x-x-x-x-x-x-x-x-x-x--|
A|-9-9-9-9--8-8-8-8--7-7-7-7-7/-9--6-6-6-6--5-5-5-5/7-4-4-4-4--6-6-6-6-6-6-5-5-7-7--|
E|----------------------------------------------------------------------------------|

E|-------------------------------------------------------------------------------------------------------|
B|-------------------------------------------------------------------------------------------------------|
G|-15-15-15-15-15-15-15-15--13-13-13-13/15-11-11-11-11--14-14-14-14/13-11-11-11-11-11--------------------|
D|--x--x--x--x--x--x--x--x---x--x--x--x--x--x--x--x--x---x--x--x--x--x--x--x--x--x--x--9999999999999999--|
A|-13-13-13-13-13-13-13-13--11-11-11-11/13--9--9--9--9--12-12-12-12/11--9--9--9--9--9--9999999999999999--|
E|-------------------------------------------------------------------------------------7777777777777777--|

then use the verse, but dont palm mute and then do the pre chorus and chorus and stuff
and you shouldnt have a problem

a lot of people have said that this song is drop d but its not  this is how its correctly played
look at some of the power chords
like:
E|----|----|
B|----|----|
G|----|----|
D|-7--|-7--|
A|-5--|-7--|
E|-5--|-5--|
theres a big difference
Comments