Foo Fighters - Live In Skin Chords & Tabs

 

Live In Skin Chords & Tabs

Foo Fighters Chords & Tabs

Version: 2 Type: Tab 0 ratings
1 star 2 stars 3 stars 4 stars 5 stars
comments

Live In Skin Tab

   
Band/artist: Foo fighters
Album: There is nothing left to lose
Song: Live in skin (track 7)
Year: 1999
Tabbed by: pwoods1

Tuning: Drop D

h = hammer-on
p = pull-off

INTRO/VERSES:
e------------------------------------|
b------------------------------------|
g------------------------------------|
d------------------------------------|
a------5------5------------------4-5-|
d--0-5----0-4----0-2-2-0-0-2-2-0-----|

CHORUS (strum each chord about 8 times)
e--------------------------------|
b--------------------------------|
g--7---5---7-------7---3---5-----|
d--7---5---7---5---7---3---5---5-|
a--5---3---5---5---5---1---3---5-|
d--------------5---------------5-|

BRIDGE (strum each chord about 8 times)
e---------|
b---------|
g--7---3--|
d--7---3--| x3
a--5---1--|
e---------|

e---------|
b---------|
g--5------|
d--5---5--| x1
a--3---5--|
d------5--|

OUTRO:
e----------------------------------------|
b----------------------------------------|
g----------------------------------------|
d----------------------------------------|
a------5------5------------------4h5p4p0-|
d--0-5----0-4----0-2-2-0-0-2-2-0---------|
[ Tab from: http://www.guitartabs.cc/tabs/f/foo_fighters/live_in_skin_tab_ver_2.html ]
Lyrics:
Take your payroll
And your lottery
There's a place I know
There's a robbery
And I swear I'll never tell
If you swear you'll never tell
And we'll all make out so well
We will all make out so well

Head on with my hate
Into the lights ahead
I'm amazed that I'm still standing
And I demand that we all blend in
I'm amounted

Just the same old
Glitter story
From the sea floor
Metamorphosis
And I can't change back for you
I will not change back for you
I must live in skin that's new
I'm a livid skin that's new

Head on with my hate
Into the lights ahead
I'm amazed that I'm still standing
And I demand that we all blend in
Head on with my hate
Into the lights ahead
I'm amazed that I'm still standing
And I demand that we all blend in

I'm amounted
I'm amounted
I'm amounted
I'm amounted

Turn your insides out to the outside
Turn the outside in to the inside
Trade your outside in for the inside
Turn it around again
Turn your insides out to the outside
Turn the outside in to the inside
Trade your outside in for the inside
Turn it around again

I'm amounted
I'm amounted
I'm amounted
I'm amounted

And I can't change back for you
I will not change back for you
I'm amounted
Comments