Foo Fighters - Learn To Fly Chords & Tabs

 

Learn To Fly Chords & Tabs

Foo Fighters Chords & Tabs

Version: 6 Type: Tab 1 rating
1 star 2 stars 3 stars 4 stars 5 stars
comments

Learn To Fly Tab

   
#----------------------------------PLEASE NOTE---------------------------------#
#This file is the author's own work and represents their interpretation of the #
#song. You may only use this file for private study, scholarship, or research. #
#------------------------------------------------------------------------------#
[ Tab from: http://www.guitartabs.cc/tabs/f/foo_fighters/learn_to_fly_tab_ver_6.html ]
Artist: Foo Fighters   
Song: Learn To Fly   (Album There Is Nothing Left To Lose)
Tabbed by: John Leadman                 
                        
              
   
   CHORDS:
   
          
   B*    (x24400)    G (320033)
   F#m*  (244200)    A (x02220)
   E     (022100)    D (xx0232)
   Bsus2 (x24422)
   
   
   
   
   
   These 2 riffs below are used in the intro and chorus. They're really
   the same riff with one minor variation. I've just written 'play with RIFFS 1 & 2
   next to the choruses.
   
   RIFF 1:
      B*              F#m*          E
   E|--------------------------------------------------------------|
   B|--------------------------------------------------------------|
   G|-4--4-4--4-4-4-4/6-6-6--6b7r6--6\4-4-4--4-4-4--4--4-4--4-4-4--|
   D|-x--x-x--x-x-x-x---x-x--x------x---x-x--x-x-x--x--x-x--x-x-x--|
   A|-2--2-2--2-2-2-2/4-4-4--4b5r4--4\2-2-2--2-2-2--2--2-2--2-2-2--|
   E|--------------------------------------------------------------|
   
   RIFF 2:
      B*              F#m*         E
   E|------------------------------------------------------------|
   B|------------------------------------------------------------|
   G|-4--4-4--4-4-4-4/6-6-6--6b7r6-4--4-4--4-4-4--4--4-4--4-4-4--|
   D|-x--x-x--x-x-x-x---x-x--x-----x--x-x--x-x-x--x--x-x--x-x-x--|
   A|-2--2-2--2-2-2-2/4-4-4--4b5r4-2--2-2--2-2-2--2--2-2--2-2-2--|
   E|------------------------------------------------------------|
   
   x = muted note
   b = bend note up
   r = release bend
   / = slide up
   \ = slide down
   
   
   INTRO: [with RIFFS 1 & 2]
   
   B*  F#m*  E
   B*  F#m*  E
   
   
   
   You should play the chords in the verses something like this:
   
       Bsus2       F#m*        E
   E|--------2-----------0-----------0------------0----|
   B|--------2-----------0-----------0------------0----|
   G|----4---4-------2---2-------1---1--------1---1----|
   D|----4-4---------4-----------2---2--------2---2----|
   A|--2---2-------4---4-------2---2--------2---2------|
   E|--------------2---2-------0---0--------0---0------|
       D u D u     D u D u     D u D u      D u D u
   
   d = downstroke     u = upstroke
   
   This really doesn't have to be exact, but something like this. Just
   remember to end each chord with an upstroke on the high strings.
   
   
Comments