Foo Fighters - Learn To Fly Chords & Tabs

 

Learn To Fly Chords & Tabs

Foo Fighters Chords & Tabs

Version: 4 Type: Tab 1 rating
1 star 2 stars 3 stars 4 stars 5 stars
comments

Learn To Fly Tab

   
LEARN TO FLY 

By foo fighters
tabbed by "stone cold" john wolanski

hey this is the new song by the foo fighters....I just noticed no one has tabbed it yet so i thot i would give it a go...

things to remember...

1. it is my first tab
2. listen to the song for the right timings and ect. 
3. this is just a template so feel free to do what you like to it
4. the foos rock!
5  i think there is a guitar playing in the background also!
ok here we go

DROPPED D

INTRO
DISTORTION

e ----------------------------
b ----------------------------
g ----------------------------
d -7---------------------------        x2
a -5---7----5--------------------
e -----7----5-------------------

VERSE
NO DISTORTION
e ----------------------------
b ----------------------------
g ----------------------------
d -7---------------------------        x4
a -5---7----5--------------------
e -----7----5-------------------
(on last time on the 7th fret give distortion)
[ Tab from: http://www.guitartabs.cc/tabs/f/foo_fighters/learn_to_fly_tab_ver_4.html ]
CHORUS
DISTORTION
e ----------------------------
b ----------------------------
g ----------------------------
d -7---------------------------        
a -5---7----5--------------------
e -----7----5-------------------
(do a couple times then turns into ......)

e ----------------------------
b ----------------------------
g ----------------------------
d -----------------------------        
a -----7----8---10----5--------
e -----7----8---10----5--------
(then go back to intro)

(*** for the weird part where dave is talking with some sort of synthesiser or something, I am not exactally sure how it goes i think it is something along the lines of ....)

e ----------------------------
b ----------------------------
g ----------------------------
d -7---------------------------        
a -5---8----3----5----------------
e -----8----3----5---------------

(once again i am not totally sure but i think this is close.....)

If you have any questions....coments or alterations to this TAB then EMAIL me at:

******** BIGDUPA@hotmail.com *********
Comments