Foo Fighters - Learn To Fly Chords & Tabs

 

Learn To Fly Chords & Tabs

Foo Fighters Chords & Tabs

Version: 5 Type: Chords 0 ratings
1 star 2 stars 3 stars 4 stars 5 stars
comments

Learn To Fly Chords

   
Hello.  I am posting this because the Tab for Foo Fighters "Learn To Fly" 
does not sound right at all, so I got bored and tabed it for myself. Some 
words in the other one were wrong too.  Here it goes.....

Foo Fighters "Learn To Fly" 
Mike M  dancehomer@aol.com

Intro:   / =bend the chord.  Just fool around with these chords, it's easy to 
figure out.

D---9-9999--11-11/--9
A---9-9999--11-11/--9
E---7-7777---9---9/--7     
play twice.  This is also played after each chorus

Verse:

e-----------2--------------0----------------0------------------0---
B----------2-----------0--0------------0--0-------------0---0---
G-------4-----------2---------------2-----------------2----------
D-----4-----------2---------------2-----------------2------------
A--2---------------------------------------------------------------
E------------------------------------------------------------------
(just keep repeating this through the each verse)
[ Tab from: http://www.guitartabs.cc/tabs/f/foo_fighters/learn_to_fly_crd_ver_5.html ]
Run and tell all of the angels
This could take all night
I think I need a devil to help me get things right
Hook me up a new revolution
Cause this one is a lie
Sat around laughing
And watched the last one die



Chrous:   (Same as verse )

I'm lookin to the sky to save me
Lookin for a sign of light
Lookin for something to help me burn out bright
I'l lookin for a complication
Lookin cause I'm tired of lying
Make my way back home and learn to fly

Bridge: 
  B5        G5          A5                       E5
Fly along with me I can't quite make it alone.
  A5                A5  
Try to make this life my own

(twice)

                            Chord forms for bridge:

                B5= 799xxx          G5= 355xxx        A5= 577xxx       E5= 
022xxx


Song order:

Intro
Verse1
Chorus
Intro
Verse2
Chorus
Bridge
Bridge
Chorus
Chorus

Suggestions welcome    Dancehomer@aol.com
Comments