Foo Fighters - Learn To Fly Chords & Tabs

 

Learn To Fly Chords & Tabs

Foo Fighters Chords & Tabs

Version: 4 Type: Bass Tab 0 ratings
1 star 2 stars 3 stars 4 stars 5 stars
comments

Learn To Fly Bass Tab

   
Foo Fighters - Learn to Fly

Intro (twice)
g|----------------------------|
d|----------------------------|
a|-2-2-2--2-2-2--9-9-9--9-9-9-|
e|----------------------------|

g|----------------------------|
d|----------------------------|
a|-7-7-7--7-7-7--7-7-7--7-7-7-|
e|----------------------------|


Verse
g|---------------------------------------|
d|---------------------------------------|
a|-2-------------------------------------|
e|-------------2----------0*-----------0-|
*repeat on measure before chorus


1st Chorus
g|----------------------------|
d|----------------------------|
a|-2-2-2--2-2-2---------------|
e|---------------2-2-2--2-2-2-|
                              |>(3x)
g|----------------------------|
d|----------------------------|
a|----------------------------|
e|-0-0-0--0-0-0--0-0-0--0-0-0-|


g|-------------------------------------------|
d|-------------------------------------------|
a|-10-10-10-10-10-10-10-10-12-12-12-12-12-12-|
e|-------------------------------------------|


2nd chorus
g|----------------------------|
d|----------------------------|
a|-2-2-2--2-2-2---------------|
e|---------------2-2-2--2-2-2-|
                              |>(3x)
g|----------------------------|
d|----------------------------|
a|----------------------------|
e|-0-0-0--0-0-0--0-0-0--0-0-0-|

g|-------------------------------------------|
d|-------------------------------------------|
a|-10-10-10-10-10-10-10-10-12-12-12-12-12-12-|
e|-------------------------------------------|

g|----------------|
d|----------------|
a|-7-7-7--7-7-7-9-|
e|----------------|

g|-------------------------------------------|
d|-------------------------------------------|
a|-10-10-10-10-10-10-10-10-12-12-12-12-12-12-|
e|-------------------------------------------|

[ Tab from: http://www.guitartabs.cc/tabs/f/foo_fighters/learn_to_fly_btab_ver_4.html ]
Bridge
g|-----------------------------------------|
d|-----------------------------------------|
a|-2-2-2--2-2-2---------------5-5-5--5-5-5-|
e|--------------3-3-3--3-3-3---------------|

g|-----------------------------------------|
d|-----------------------------------------|
a|-----------------------------------------|
e|-0-0-0--0-2-3-3-3-3-3-3-3-5-5-5-5-5-5-5--|

g|-----------------------------------------|
d|-----------------------------------------|
a|-2-2-2--2-2-2----------------5---5-------|
e|--------------3-3-3--3-3-3-----5---2-----|

g|-----------------------------------------|
d|-----------------------------------------|
a|-----------------------------------------|
e|-0-0-0--0-2-3-3-3-3-3-3-3-5-5-5-5-5-5-5--|


Last Chorus
g|----------------------------|
d|----------------------------|
a|-2-2-2--2-2-2---------------|
e|---------------2-2-2--2-2-2-|
                              |>(6x)
g|----------------------------|
d|----------------------------|
a|----------------------------|
e|-0-0-0--0-0-0--0-0-0--0-0-0-|

g|-------------------------------------------|
d|-------------------------------------------|
a|-10-10-10-10-10-10-10-10-12-12-12-12-12-12-|
e|-------------------------------------------|

g|----------------|
d|----------------|
a|-7-7-7--7-7-7-9-|
e|----------------|

g|-------------------------------------------|
d|-------------------------------------------|
a|-10-10-10-10-10-10-10-10-12-12-12-12-12-12-|
e|-------------------------------------------|

g|----------------|
d|----------------|
a|-7-7-7--7-7-7-9-|
e|----------------|

g|-------------------------------------------|
d|-------------------------------------------|
a|-10-10-10-10-10-10-10-10-12-12-12-12-12-12-|
e|-------------------------------------------|


Outro
g|--------------------------------------|
d|--------------------------------------|
a|-2----2----2----2----2----2----2----2-|
e|--------------------------------------|

g|-------|
d|-------|
a|-2-7-9-|
e|-------|
Comments