Foo Fighters - Learn To Fly Chords & Tabs

 

Learn To Fly Chords & Tabs

Foo Fighters Chords & Tabs

Version: 2 Type: Bass Tab 0 ratings
1 star 2 stars 3 stars 4 stars 5 stars
comments

Learn To Fly Bass Tab

Artist: Foo Fighters
Album: There Is Nothing Left To Loose
Song: Learn To Fly
Tabbed By: Phil B  
Bass Tab Army  www.basstabarchive.com

*= This sign means to hit the note and let it ring

Chorus and Intro

2x
G--------------------------------------------------
D--------------------------------------------------
A-222222-------------------------------------------
E--------222222-0000000000-------------------------

Verse

4x On the 4th time keep hitting the E string
G--------------------------------------------------
D--------------------------------------------------
A-2*-----------------------------------------------
E----2*--0*----------------------------------------

Part after Chorus

G--------------------------------------------------
D-5555555555--77777777777--------------------------
A--------------------------------------------------
E--------------------------------------------------

[ Tab from: http://www.guitartabs.cc/tabs/f/foo_fighters/learn_to_fly_btab_ver_2.html ]
Chorus Variation
G--------------------------------------------------
D-5555555555--77777777777--2222222-44--------------
A--------------------------------------------------
E--------------------------------------------------


G-----------------------------------------------------
D-----------------------------------------------------
A-222222---------5555555------------------------------
E--------3333333---------0000000-2-33333333-5555555---


G-----------------------------------------------------
D-----------------------------------------------------
A-222222---------5-5----------------------------------
E--------3333333--5-5-0000000-2-33333333-5555555------


Bit at the end
G-----------------------------------------------
D------------2-4--------------------------------
A-2*-------2------------------------------------
E-----------------------------------------------

Here is everything you need for the song just work out
when to play them. If you are looking for any other bass
tabs please check out the Bass tab archive or email me at
new_breeder@hotmail.com where i will do my best to help
ENJOY!
Comments