Foo Fighters - I'll Stick Around Chords & Tabs

 

I'll Stick Around Chords & Tabs

Foo Fighters Chords & Tabs

Version: 7 Type: Tab 0 ratings
1 star 2 stars 3 stars 4 stars 5 stars
comments

I'll Stick Around Tab

   
Band: Foo Fighters
Title: I'll Stick Around
Album: Foo Fighters
Transcribed by: Jamie Kral
Standard Tuning

Use the neck pickup (humbucker if you have it) with a decent amount of distortion.
During the verses play a little softer and closer to the bridge of the guitar and
try to make the strums bleed into each other.  Great beginner song if you have someone
to play bass guitar along with you. 

Intro: play 2x
 |<-------------3x--------------->|<---------------1x--------------|
e|--------------------------------|--------------------------------|
B|--------------------------------|--------------------------------|
G|------------8-8-8-----------10--|------------8-8-8---------------|
D|5---5-------8-8-8---8---10--10--|5---5-------8-8-8---8---10--8---|
A|5---5-------6-6-6---8---10--8---|5---5-------6-6-6---8---10--8---|
E|3---3---------------6---8-------|3---3---------------6---8---6---|

Verse 1:
  G                                F
e|3-------3---3-------3---3---3---|--------------------------------|
B|3-------3---3-------3---3---3---|1-------1---1-------1---1---1---|
G|0-------0---0-------0---0---0---|2-------2---2-------2---2---2---|
D|0-------0---0-------0---0---0---|3-------3---3-------3---3---3---|
A|2-------2---2-------2---2---2---|3-------3---3-------3---3---3---|
E|3-------3---3-------3---3---3---|--------------------------------|
  I thought I knew...

  Am                               G
e|0-------0---0-------0---0---0---|3-------3---3-------3---3---3---|
B|1-------1---1-------1---1---1---|3-------3---3-------3---3---3---|
G|2-------2---2-------2---2---2---|0-------0---0-------0---0---0---|
D|2-------2---2-------2---2---2---|0-------0---0-------0---0---0---|
A|0-------0---0-------0---0---0---|2-------2---2-------2---2---2---|
E|--------------------------------|3-------3---3-------3---3---3---|

  A#                               Am
e|--------------------------------|0-------0---0-------0---0---0---|
B|3-------3---3-------3---3---3---|1-------1---1-------1---1---1---|
G|3-------3---3-------3---3---3---|2-------2---2-------2---2---2---|
D|3-------3---3-------3---3---3---|2-------2---2-------2---2---2---|
A|1-------1---1-------1---1---1---|0-------0---0-------0---0---0---|
E|--------------------------------|--------------------------------|

  G                                G
e|3-------3---3-------3---3---3---|3-------3---3-------3---3---3---|
B|3-------3---3-------3---3---3---|3-------3---3-------3---3---3---|
G|0-------0---0-------0---0---0---|0-------0---0-------0---0---0---|
D|0-------0---0-------0---0---0---|0-------0---0-------0---0---0---|
A|2-------2---2-------2---2---2---|2-------2---2-------2---2---2---|
E|3-------3---3-------3---3---3---|3-------3---3-------3---3---3---|

  G                                F
e|3-------3---3-------3---3---3---|--------------------------------|
B|3-------3---3-------3---3---3---|1-------1---1-------1---1---1---|
G|0-------0---0-------0---0---0---|2-------2---2-------2---2---2---|
D|0-------0---0-------0---0---0---|3-------3---3-------3---3---3---|
A|2-------2---2-------2---2---2---|3-------3---3-------3---3---3---|
E|3-------3---3-------3---3---3---|--------------------------------|

  Am                               G
e|0-------0---0-------0---0---0---|3-------3---3-------3---3---3---|
B|1-------1---1-------1---1---1---|3-------3---3-------3---3---3---|
G|2-------2---2-------2---2---2---|0-------0---0-------0---0---0---|
D|2-------2---2-------2---2---2---|0-------0---0-------0---0---0---|
A|0-------0---0-------0---0---0---|2-------2---2-------2---2---2---|
E|--------------------------------|3-------3---3-------3---3---3---|

  A#                               Am
e|--------------------------------|0-------0---0-------0---0---0---|
B|3-------3---3-------3---3---3---|1-------1---1-------1---1---1---|
G|3-------3---3-------3---3---3---|2-------2---2-------2---2---2---|
D|3-------3---3-------3---3---3---|2-------2---2-------2---2---2---|
A|1-------1---1-------1---1---1---|0-------0---0-------0---0---0---|
E|--------------------------------|--------------------------------|

 |<-------------3x--------------->|
e|--------------------------------|--------------------------------|
B|--------------------------------|--------------------------------|
G|------------8-8-8-----------10--|------------8-8-8---------------|
D|5---5-------8-8-8---8---10--10--|5---5-------8-8-8---8---10--8---|
A|5---5-------6-6-6---8---10--8---|5---5-------6-6-6---8---10--8---|
E|3---3---------------6---8-------|3---3---------------6---8---6---|

Verse 2&3: play 2x
  G                                F
e|3-------3---3-------3---3---3---|--------------------------------|
B|3-------3---3-------3---3---3---|1-------1---1-------1---1---1---|
G|0-------0---0-------0---0---0---|2-------2---2-------2---2---2---|
D|0-------0---0-------0---0---0---|3-------3---3-------3---3---3---|
A|2-------2---2-------2---2---2---|3-------3---3-------3---3---3---|
E|3-------3---3-------3---3---3---|--------------------------------|
[ Tab from: http://www.guitartabs.cc/tabs/f/foo_fighters/ill_stick_around_tab_ver_7.html ]
  Am                               G
e|0-------0---0-------0---0---0---|3-------3---3-------3---3---3---|
B|1-------1---1-------1---1---1---|3-------3---3-------3---3---3---|
G|2-------2---2-------2---2---2---|0-------0---0-------0---0---0---|
D|2-------2---2-------2---2---2---|0-------0---0-------0---0---0---|
A|0-------0---0-------0---0---0---|2-------2---2-------2---2---2---|
E|--------------------------------|3-------3---3-------3---3---3---|

  A#                               Am
e|--------------------------------|0-------0---0-------0---0---0---|
B|3-------3---3-------3---3---3---|1-------1---1-------1---1---1---|
G|3-------3---3-------3---3---3---|2-------2---2-------2---2---2---|
D|3-------3---3-------3---3---3---|2-------2---2-------2---2---2---|
A|1-------1---1-------1---1---1---|0-------0---0-------0---0---0---|
E|--------------------------------|--------------------------------|

  G                                G
e|3-------3---3-------3---3---3---|3-------3---3-------3---3---3---|
B|3-------3---3-------3---3---3---|3-------3---3-------3---3---3---|
G|0-------0---0-------0---0---0---|0-------0---0-------0---0---0---|
D|0-------0---0-------0---0---0---|0-------0---0-------0---0---0---|
A|2-------2---2-------2---2---2---|2-------2---2-------2---2---2---|
E|3-------3---3-------3---3---3---|3-------3---3-------3---3---3---|

Pre-Chorus:
  A#                          G                                C9
e|----------------------------3---|----3---3-------3---3---3-------|
B|3-------3-------3---3---3---3---|----3---3-------3---3---3---3---|
G|3-------3-------3---3---3---0---|----0---0-------0---0---0---3---|
D|3-------3-------3---3---3---0---|----0---0-------0---0---0---2---|
A|1-------1-------1---1---1---2---|----3---3-------3---3---3---3---|
E|----------------------------3---|----3---3-------3---3---3-------|
      I've taken all and I've endured...

                           
e|--------------------------------|--------------------------------|
B|----------(3)-------------------|------(3)-------3---3---3---3---|
G|----------(3)-------------------|------(3)-------3---3---3---3---|
D|----------(2)-------------------|------(2)-------2---2---2---2---|
A|----------(3)-------------------|------(3)-------3---3---3---3---|
E|--------------------------------|--------------------------------|

  A#                          G                                C9
e|----------------------------3---|----3---3-------3---3---3-------|
B|3-------3-------3---3---3---3---|----3---3-------3---3---3---3---|
G|3-------3-------3---3---3---0---|----0---0-------0---0---0---3---|
D|3-------3-------3---3---3---0---|----0---0-------0---0---0---2---|
A|1-------1-------1---1---1---2---|----3---3-------3---3---3---3---|
E|----------------------------3---|----3---3-------3---3---3-------|

e|--------------------------------|--------------------------------|
B|----3---3---3---3---3---3---3---|3---3---3---3---3---3---3---3---|
G|----3---3---3---3---3---3---3---|3---3---3---3---3---3---3---3---|
D|----2---2---2---2---2---2---2---|2---2---2---2---2---2---2---2---|
A|----3---3---3---3---3---3---3---|3---3---3---3---3---3---3---3---|
E|--------------------------------|--------------------------------|

Chorus: play 2x
 |<-------------3x--------------->|<---------------1x--------------|
e|--------------------------------|--------------------------------|
B|--------------------------------|--------------------------------|
G|------------8-8-8-----------10--|------------8-8-8---------------|
D|5---5-------8-8-8---8---10--10--|5---5-------8-8-8---8---10--8---|
A|5---5-------6-6-6---8---10--8---|5---5-------6-6-6---8---10--8---|
E|3---3---------------6---8-------|3---3---------------6---8---6---|

Verse 3: play 2x
Pre-Chorus: play 1x
Chorus: play 4x

Bridge: play this 5x              like an F barre chord except lift your pinky
  D#                               F7
e|--------------------------------|1-------1---1---1---1---1---1---|
B|8-------8---8---8---8---8---8---|1-------1---1---1---1---1---1---|
G|8-------8---8---8---8---8---8---|2-------2---2---2---2---2---2---|
D|8-------8---8---8---8---8---8---|1-------1---1---1---1---1---1---|
A|6-------6---6---6---6---6---6---|3-------3---3---3---3---3---3---|
E|--------------------------------|1-------1---1---1---1---1---1---|
          I'll sick around, I'll stick around...

  G                                D
e|3-------3---3---3---3---3---3---|2-------2---2-------2---2-------|
B|3-------3---3---3---3---3---3---|3-------3---3-------3---3-------|
G|0-------0---0---0---0---0---0---|2-------2---2-------2---2-------|
D|0-------0---0---0---0---0---0---|0-------0---0-------0---0-------|
A|2-------2---2---2---2---2---2---|--------------------------------|
E|3-------3---3---3---3---3---3---|--------------------------------|

then,
  D#                               F7
e|--------------------------------|1-------1---1---1---1---1---1---|
B|8-------8---8---8---8---8---8---|1-------1---1---1---1---1---1---|
G|8-------8---8---8---8---8---8---|2-------2---2---2---2---2---2---|
D|8-------8---8---8---8---8---8---|1-------1---1---1---1---1---1---|
A|6-------6---6---6---6---6---6---|3-------3---3---3---3---3---3---|
E|--------------------------------|1-------1---1---1---1---1---1---|

Chorus: play 2x

End:
e|------------|
B|------------|
G|------------|
D|5---5-------|
A|5---5-------|
E|3---3-------|
Comments