Foo Fighters - How I Miss You Chords & Tabs

 

How I Miss You Chords & Tabs

Foo Fighters Chords & Tabs

Version: 1 Type: Tab 0 ratings
1 star 2 stars 3 stars 4 stars 5 stars
comments

How I Miss You Tab

   

Date: Fri, 29 Nov 1996 15:53:18 GMT-400
From: "." 

how i miss you - foo fighters
#----------------------------------PLEASE NOTE---------------------------------#
#This file is the author's own work and represents their interpretation of the #
#song. You may only use this file for private study, scholarship, or research. #
#------------------------------------------------------------------------------#

tabbed by David Cogswell & Josiah Bean

This is a cool song from their "Big Me" EP.  It might
not be quite right, but anyway, here goes.  I play it 
in dropped-D tuning (low to high- D A D G B E)

 Verse 
e|-------------------------------------------------------------
b|-------------------------------------------------------------
g|-11--------11--------11--13--------13--------13----------13--
d|-------------------------------------------------------------
a|-9---------9---------9---11--------11--------11----------11--
d|-0--0--0---0--0--0---0---0---0--0--0---0--0--0---0---0---0---
1.       How i miss you  [x3]
2.    

 Verse [cont'd]
e|---------------------------------------------------------------
b|---------------------------------------------------------------
g|--9--------9--9--7--------7--7---10-------10----10----10-10-10-
d|---------------------------------------------------------------
a|--7--7--7--7--7--5--5--5--5--5---8--8--8--8--8--8--8--8--8--8--
e|--0--0--0--0--0--0--0--0--0--0---0--0--0--0--0--0--0--0--0--0-- 
1.I should never call        

e|--------------------------------------------------------------
b|--------------------------------------------------------------
g|--12-12-12-12-12-12-12-12-10-10-10-10-10-10-10-10-13-13-13-13-
d|--------------------------------------------------------------
a|--10-10-10-10-10-10-10-10-8--8--8--8--8--8--8--8--11-11-11-11-
d|--0--0--0--0--0--0--0--0--0--0--0--0--0--0--0--0--0--0--0--0--
          If you're leaving              

e|-----------------------------------------------------
b|-----------------------------------------------------
g|--12-12-12-12-12-12-12-12-10-10-10-10-10-10-10-10-5--
d|-----------------------------------------------------
a|--10-10-10-10-10-10-10-10-8--8--8--8--8--8--8--8--3--
e|--0--0--0--0--0--0--0--0--0--0--0--0--0--0--0--0--0--
         

 [Now kick on the Distortion]
[ Tab from: http://www.guitartabs.cc/tabs/f/foo_fighters/how_i_miss_you_tab.html ]
e|-------------------------------------------------------------
b|-------------------------------------------------------------
g|-11--------11--------11--13--------13--------13----------13--
d|-------------------------------------------------------------
a|-9---------9---------9---11--------11--------11----------11--
d|-0--0--0---0--0--0---0---0---0--0--0---0--0--0---0---0---0---
1.       Did i lose you [x3]
2.     

e|---------------------------------------------------------------
b|---------------------------------------------------------------
g|--9--------9--9--7--------7--7---10-------10----10----10-10-10-
d|---------------------------------------------------------------
a|--7--7--7--7--7--5--5--5--5--5---8--8--8--8--8--8--8--8--8--8--
e|--0--0--0--0--0--0--0--0--0--0---0--0--0--0--0--0--0--0--0--0-- 
1. Somewhere down the line   

e|--------------------------------------------------------------
b|--------------------------------------------------------------
g|--12-12-12-12-12-12-12-12-10-10-10-10-10-10-10-10-13-13-13-13-
d|--------------------------------------------------------------
a|--10-10-10-10-10-10-10-10-8--8--8--8--8--8--8--8--11-11-11-11-
d|--0--0--0--0--0--0--0--0--0--0--0--0--0--0--0--0--0--0--0--0--
          If you're leaving               

e|-----------------------------------------------------
b|-----------------------------------------------------
g|--12-12-12-12-12-12-12-12-10-10-10-10-10-10-10-10-5--
d|-----------------------------------------------------
a|--10-10-10-10-10-10-10-10-8--8--8--8--8--8--8--8--3--
e|--0--0--0--0--0--0--0--0--0--0--0--0--0--0--0--0--0--
                all       alone   

[Now turn the Distortion off]

e|-------------------------------------------------------------
b|-------------------------------------------------------------
g|-11--------11--------11--13--------13--------13----------13--
d|-------------------------------------------------------------
a|-9---------9---------9---11--------11--------11----------11--
d|-0--0--0---0--0--0---0---0---0--0--0---0--0--0---0---0---0---
         How i miss you  [x3]
  [quiet]                       [unplug guitar]
e|---------------------------------------------------------------
b|---------------------------------------------------------------
g|--9--------9--9--7--------7------------------------------------
d|---------------------------------------------------------------
a|--7--7--7--7--7--5--5--5---------------------------------------
e|--0--0--0--0--0--0--0--0--0------------------------------------
1. I should never call       

That's it.  Have a ball with this one. 



Comments