Foo Fighters - Hey Johnny Park Chords & Tabs

 

Hey Johnny Park Chords & Tabs

Foo Fighters Chords & Tabs

Version: 4 Type: Tab 0 ratings
1 star 2 stars 3 stars 4 stars 5 stars
comments

Hey Johnny Park Tab

   
This version is two guitars played on one, it is quite easy
[ Tab from: http://www.guitartabs.cc/tabs/f/foo_fighters/hey_johnny_park_tab_ver_4.html ]
E|-----------------------|
B|-------32-----32-------|
G|---3-------------------|
D|---3-------2-----------|
A|---2-------0-----------|
E|-----------------------|
   E
E|----------------------------------7|
B|----------------------------------7|
G|-1-------------------7---------9--7|
D|-2---------5---------7---------9--7|
A|-2---------5-(slide)-5-(Slide)-7--7|
E|------01---3----------------------7|

x2 (whole thing) for the last part (7) place hole finger across all strings

If you listen to the song the strumming should be easy
Comments