Foo Fighters - Hey Johnny Park Chords & Tabs

 

Hey Johnny Park Chords & Tabs

Foo Fighters Chords & Tabs

Version: 1 Type: Tab 0 ratings
1 star 2 stars 3 stars 4 stars 5 stars
comments

Hey Johnny Park Tab

   
#----------------------------------PLEASE NOTE---------------------------------#
#This file is the author's own work and represents their interpretation of the #
#song. You may only use this file for private study, scholarship, or research. #
#------------------------------------------------------------------------------#
#

From: Fooo22@aol.com
Date: Fri, 10 Oct 1997 18:36:13 -0400 (EDT)
Subject: here is Hey, Johnny Park! by foo fighters.
[ Tab from: http://www.guitartabs.cc/tabs/f/foo_fighters/hey_johnny_park_tab.html ]
			HEY, JOHNNY PARK!
			 BY FOO FIGHTERS
 
DROP D TUNING
 
INTRO:
e|-----X---------X-----4-X-X-4-X-4-4--------------------------|
B|-----X---------X-----3-X-X-3-X-3-3--------------------------|
G|-----X-7-6-----X-7-6-4-X-X-4-X-4-4--------------------------|
D|-9-9-X-----7-7-X-----2-X-X-2-X-2-2--2P0-2-4-5-5----0-0------|
A|-9-9-X-----7-7-X-----2-X-X-2-X-2-2--2P0-2-4-5-5----0-0------|
E|-9-9-X-----7-7-X-----2-X-X-2-X-2-2--2P0-2-4-5-5-12\0-0-5/12-|
 
e|-4-X-X-4-X-4-4----------------X---------X-----4-X-X-4-X-4-4-|
B|-3-X-X-3-X-3-3----------------X---------X-----3-X-X-3-X-3-3-|
G|-4-X-X-4-X-4-4----------------X-7-6-----X-7-6-4-X-X-4-X-4-4-|
D|-2-X-X-2-X-2-2------------9-9-X-----7-7-X-----2-X-X-2-X-2-2-|
A|-2-X-X-2-X-2-2--------0---9-9-X-----7-7-X-----2-X-X-2-X-2-2-|
E|-2-X-X-2-X-2-2--2P0-2-----9-9-X-----7-7-X-----2-X-X-2-X-2-2-|
 
e|-------------------------|
B|-------------------------|
G|-------------------------|
D|--2P0-2-4-5-5----0-0-0-0-|
A|--2P0-2-4-5-5----0-0-0-0-|
E|--2P0-2-4-5-5-12\0-0-0-0-|
 
VERSE: REPEAT 2X
e|---2-2-2-X---2-X-X---2-2-2-2-2-3P2-----2-2-2-X---2-X-X-|
B|---3-3-3-X---3-X-X---3-3-3-3-3----3----3-3-3-X---3-X-X-|
G|---4-4-4-X---4-X-X---2-2-2-2-2---------4-4-4-X---4-X-X-|
D|-------------------0-0-0-0-0-0-------------------------|
A|-2---------2-------------------------2---------2-------|
E|-------------------------------------------------------|
 
e|--2-2-2-2-2-3P2----2-2-2-X---2-X-X---0-0-0-0-0-0-|
B|--3-3-3-3-3----3---3-3-3-X---3-X-X---2-2-2-3-3-2-|
G|--2-2-2-2-2--------4-4-4-X---4-X-X---2-2-2-2-2-2-|
D|0-0-0-0-0-0--------------------------2-2-2-2-2-2-|
A|-----------------2---------2-------0-------------|
E|-------------------------------------------------|
 


 

e|---4---------4---------4---------|
B|---3---------3---------3---------|
G|---4---------4---------4---------|
D|---------------------------------|
A|---------------------------------|
E|-2---0H2P0H2---0H2P0H2---0H2P0H2-|
 
CHORUS: REPEAT 3X
e|-----------------------2-2-X-X-2-2-2-2-2-|
B|-----------------------3-3-X-X-3-3-3-3-3-|
G|-----------------------2-2-X-X-2-2-2-2-2-|
D|-2-4-5-5-X-X-5-5-5-5-5-0-0-X-X-0-0-0-0-0-|
A|-2-4-5-5-X-X-5-5-5-5-5-0-0-X-X-0-0-0-0-0-|
E|-2-4-5-5-X-X-5-5-5-5-5-0-0-X-X-0-0-0-0-0-|
 
REPEAT 2X
e|---------------------------------|
B|---------------------------------|
G|-5-5-5-5-5-5-5-------------------|
D|-5-5-5-5-5-5-5-0-3-3-3-5-0-0-0-0-|
A|-3-3-3-3-2-2-2-0-3-3-3-5-0-0-0-0-|
E|---------------0-3-3-3-5-0-0-0-0-|
 
Comments