Foo Fighters - Halo Chords & Tabs

 

Halo Chords & Tabs

Foo Fighters Chords & Tabs

Version: 2 Type: Tab 0 ratings
1 star 2 stars 3 stars 4 stars 5 stars
comments

Halo Tab

-------------------------------------------------------------------------------
			     Halo - Foo Fighters
-------------------------------------------------------------------------------

Tabbed by: Fooman
Email:

Tuning: Standard

This is just the basics but it should give you a good start.

Intro/Verse
e|-0-0-0-0-0-0-0-0--3-3-3-3-3-3-3-3------------------------------------------
B|-3-3-3-3-3-3-3-3--3-3-3-3-3-3-3-3------------------------------------------
G|-0-0-0-0-0-0-0-0--0-0-0-0-0-0-0-0------------------------------------------
D|-2-2-2-2-2-2-2-2--0-0-0-0-0-0-0-0--3-3-3-3-3-3-3-3--7-7-7-7-7-7-7-7--------
A|-x-x-x-x-x-x-x-x--2-2-2-2-2-2-2-2--3-3-3-3-3-3-3-3--7-7-7-7-7-7-7-7--------
E|-x-x-x-x-x-x-x-x--3-3-3-3-3-3-3-3--1-1-1-1-1-1-1-1--5-5-5-5-5-5-5-5--------
[ Tab from: http://www.guitartabs.cc/tabs/f/foo_fighters/halo_tab_ver_2.html ]
Pre-Chorus
e|---------------------------------------------------------------------------
B|---------------------------------------------------------------------------
G|-8-8-8-8-8-8-8-8--7-7-7-7-7-7-7-7-------5-5-5-5-5-5-5-5--7-7-7-7-7-7-7-7---
D|-8-8-8-8-8-8-8-8--7-7-7-7-7-7-7-7--3x---5-5-5-5-5-5-5-5--7-7-7-7-7-7-7-7---
A|-6-6-6-6-6-6-6-6--5-5-5-5-5-5-5-5-------3-3-3-3-3-3-3-3--5-5-5-5-5-5-5-5---
E|---------------------------------------------------------------------------

Chorus
e|---------------------------------------------------------------------------
B|---------------------------------------------------------------------------
G|-------------------------5-5-5-5-8-8-8-8-7-7-7-7-5-5-5-5-7-7-7-7-----------
D|-5-5-5-5-5-5-5-5-3-3-3-3-5-5-5-5-8-8-8-8-7-7-7-7-5-5-5-5-7-7-7-7-----------
A|-5-5-5-5-5-5-5-5-3-3-3-3-3-3-3-3-6-6-6-6-5-5-5-5-3-3-3-3-5-5-5-5-----------
E|-3-3-3-3-2-2-2-2-1-1-1-1---------------------------------------------------
Comments